Song name
# A B C D E F G H I J K L M N O P Q R S T U V W X Y Z

Kanye West - No Church In The Wild tab

I hate it when the tab I'm looking for is so wrong. Here ya go, guys.

Song's in the key of Ebm, so if you want to play along with the track you gotta tune 
down a half step.

Main Hook

E---------------------------------------|
B---------------------------------------|
G---------------------------------------|
D---------------------------------------|
A---------5p2-----3p2---------5p2-------|
E--0--3p0-----3p0-----3p0-2p0-----------|

...Make it out alive, alright alright, no church in the wild

E--------------|
B--------------|
G-5---7--------|
D-5---7---2----|
A-3---5---2----|
E---------0----|

This is the first of a couple tabs I'm gonna do, so shoot me a comment and tell me what 
you think.
Tap to rate this tab
 
# A B C D E F G H I J K L M N O P Q R S T U V W X Y Z