Song name
# A B C D E F G H I J K L M N O P Q R S T U V W X Y Z

Kanye West - Hold My Liquor chords

Highlighted       Show chord diagrams
Cm,                                             D#
i can hold my liquor, but this man can't handle  me
                                            G#
dark and lonely round on chicagos south of town
                           A#              Cm
i'm onto indiana, i heard it in the radio now

Cm,                                                     D#
i can't handle no liqua... but these bitches can't handle me
                                                           G#
i can't control me niggas, and my niggas they can't control me
                                                              Cm
you say you know me my nigga, but you really just know the old me


repeat through the whole song



to do the cool screechy thing on kanye's verse play this on the high e string:

e--13/12------------

or better yet bend it (start bent and pull back down to none bent)


guitar solo at 2:37 (you might be able to do this with one guitar, you just have to 
throw some crazy effects on there):

E||--------------|-----------------|-------3----6----|
B||--11s----1----|--1----3----4----|--6--------------|
G||--------------|-----------------|-----------------|
D||--------------|-----------------|-----------------|
A||--------------|-----------------|-----------------|
E||--------------|-----------------|-----------------|


--6--3--------6--3--------|-8-----||
--------6--4--------6--4-x a bunch||
--------------------------|-------||
--------------------------|-------||
--------------------------|-------||
--------------------------|-------||


3:47 guitar solo: (just the general notes that are played, figure out the phrasing 
yourself, it's a groovy pursuit)

E||--------------|--8----10----11----13----|--15----15b--15----15----|--18----|
B||--11s----1----|-------------------------|-------------------------|--------|
G||--------------|-------------------------|-------------------------|--------|
D||--------------|-------------------------|-------------------------|--------|
A||--------------|-------------------------|-------------------------|--------|
E||--------------|-------------------------|-------------------------|--------|


----------------------------|-------||
----------------------------|-------||
--8----10b----8----10--10b--|-------||
----------------------------|-------||
----------------------------|-------||
----------------------------|-------||

end on a c minor

tabbed from way up in bham wa. yeezus just rose again
Tap to rate this tab
# A B C D E F G H I J K L M N O P Q R S T U V W X Y Z