Song name
# A B C D E F G H I J K L M N O P Q R S T U V W X Y Z

Kanye West - All Falls Down tab

Kanye West - All Falls Down

Original Sample; Lauren Hill - History of Iniquity

Main Riff 

e|-----------------------------------------------|
B|-----------------------------------------------|
G|-------------------------------3-4-3-----------|
D|-----6h8p6-------------------6-------6---------|
A|---------------------------6-----------6-------|
E|--6---------6--5--4--4-6-7---------------7-4-6-|



Chorus Chords:  A#m7 - Am7 - G#m7

e|--6--6-x-x-6-x-5-x-4--4-4--4--4-5-6-|
B|--6--6-x-x-6-x-5-x-4--4-4--4--4-5-6-|
G|--6--6-x-x-6-x-5-x-4--4-4--4--4-5-6-|
D|--6--6-x-x-6-x-5-x-4--4-4--4--4-5-6-|
A|--8--8-x-x-8-x-7-x-6--6-6--6--6-7-8-|
E|--6--6-x-x-6-x-5-x-4--4-4--4--4-5-6-|
Tap to rate this tab
 
# A B C D E F G H I J K L M N O P Q R S T U V W X Y Z