Song name
# A B C D E F G H I J K L M N O P Q R S T U V W X Y Z

Kanye West - Hell Of A Life tab

Chorus vocal melody:

E||----------------------------|--------------------------------------|
B||----------------------------|--------------------------------------|
G||----------------------------|--13-12-13-12-13-12-------------------|
D||--10----10----13--15--15----|--------------------13--13--15--15----|
A||----------------------------|--------------------------------------|
E||----------------------------|--------------------------------------|

 
----------------------------|--------------------------------------|
----------------------------|--------------------------------------|
----------------------------|--13-12-13-12-13-12-------------------|
--10----10----13--15--15----|--------------------13--13--15--15----|
----------------------------|--------------------------------------|
----------------------------|--------------------------------------|
  
-------------------------|-----------------------------------|
-------------------------|-----------------------------------|
--------12----8----------|--12--13--15--13--12-/-13--12--10--|
--10---------------10----|-----------------------------------|
-------------------------|-----------------------------------|
-------------------------|-----------------------------------|
Tap to rate this tab
# A B C D E F G H I J K L M N O P Q R S T U V W X Y Z