Song name
# A B C D E F G H I J K L M N O P Q R S T U V W X Y Z

Kanye West - Bittersweet Poetry tab

-------------------------------------------------------------------------------
			     Kanye West - Bittersweet Poetry
-------------------------------------------------------------------------------
Tabbed by:me

Tuning:standard

this chord progression plays throughout the whole song.

e|---6--6--3--6--4--3--1--1-----------------------------------------------------|
B|---8--6--4--6--4--4--1--3-----------------------------------------------------|
G|---8--7--5--7--5--3--1--1-----------------------------------------------------|
D|---8--8--5--8--6--5--3--3-----------------------------------------------------|
A|---6--8--3--8--6--6--3--1-----------------------------------------------------|
E|------6-----6--4-----1--------------------------------------------------------|

    Eb-Bb-Cm-Bb-Ab-Eb-Fm-Bb7

obviously there are alternate ways of playing the chords...but these are the fingerings 
use while playing it.

have fun playin it
peace
Tap to rate this tab
 
# A B C D E F G H I J K L M N O P Q R S T U V W X Y Z