Song name
# A B C D E F G H I J K L M N O P Q R S T U V W X Y Z

Kapatid - Prayer tab

title:prayer
artist:kapatid
tabbed by:prince_edward_anthony@yahoo.com

this is the song for the late chico molina. a very
nice song.astig to mga kapatid. sana magustuhan nyo...
sorry di pa buo.

standard tuning

Intro:

e------------------------2----------|
B-----------4------------2----------|
G-----4-3h4-4------4-3h4-4----------|
D----4-4----4-----4-4---------------|
A---2------------2------------------|
E-----------------------------------|

e----------------------------------------------|
B----------------------------------------------|
G---444444-------------------------------------|
D---444444---8x----7777777-7/9--9\7--777777----|
A---222222---------7777777-7/9--9\7--777777----|
E------------------5555555-5/7--7\5--555555----|
Tap to rate this tab
# A B C D E F G H I J K L M N O P Q R S T U V W X Y Z