Kapitan Korsakov - When We Were Hookers tab

when we were hookers - kapitan korsakov

drop D tuning (and lower everything a half tone to make it sound nastier =P )

intro:
E|---------------------------------------------------|
B|---------------------------------------------------|
G|---------------------------------------------------|  repeat as long as you
D|--0--0-0/12~-----0--0-0/12-0/13-13-13/12~----------|  want
A|--0--0-0/12~~----0--0-0/12-0/13-13-13/12~~---------|
D|--0--0-0/12~~----0--0-0/12-0/13-13-13/12~~---------|
   |___________|
        X2


E|---------------------------|             |------------------------------|
B|---------------------------|             |------------------------------|
G|---------------------------|             |------------------------------|
D|--0--0--2--0--5-3--0-2h3---| X3 and then |--0--0--2--0-3--x-x-x-x-x-x---|X3
A|--0--0--2--0--5-3--0-2h3---|             |--0--0--2--0-3--x-x-x-x-x-x---|
D|--0--0--2--0--5-3--0-2h3---|             |--0--0--2--0-3--x-x-x-x-x-x---|


verse is just open lower string (bass does the rest of the job)

that's it just ad a lot of noize
A LOT!

http://www.myspace.com/kapitankorsakov
Tap to rate this tab
 
# A B C D E F G H I J K L M N O P Q R S T U V W X Y Z