Song name
# A B C D E F G H I J K L M N O P Q R S T U V W X Y Z

Kapitan Korsakov - When We Were Hookers tab

	(Yeah, that's right D D D D D D )
D|---------------------------------------------------|
D|---------------------------------------------------|
D|---------------------------------------------------|  
D|---------------------------------------------------| 
D|--0--0-0/12~~----0--0-0/12-0/13-13-13/12~~---------|      x7
D|--0--0-0/12~~----0--0-0/12-0/13-13-13/12~~---------|
    |__________|
         X2

                   (The last bit is just random noise)
D|---------------------------------------------------|
D|---------------------------------------------------|
D|-0-2-0-2/3-0-0-2-2-2-2-0-2/3-0-0--xxxxxxxx---------|      x6
D|-0-2-0-2/3-0-0-2-2-2-2-0-2/3-0-0--xxxxxxxx---------| 
D|---------------------------------------------------|
D|---------------------------------------------------|



D|---------------------------------------------------|
D|---------------------------------------------------|
D|---------------------------------------------------|  
D|---------------------------------------------------| 
D|---------------------------------------------------|
D|4p----4p------4p------4p------4p------4p-----------|



                   (The last bit is just random noise)
D|---------------------------------------------------|
D|---------------------------------------------------|
D|-0-2-0-2/3-0-0-2-2-2-2-0-2/3-0-0--xxxxxxxx---------|      x2
D|-0-2-0-2/3-0-0-2-2-2-2-0-2/3-0-0--xxxxxxxx---------| 
D|---------------------------------------------------|
D|---------------------------------------------------|



D|---------------------------------------------------|
D|---------------------------------------------------|
D|---------------------------------------------------|  
D|---------------------------------------------------| 
D|---------------------------------------------------|
D|4p----4p------4p------4p------4p------4p-----------|




                   (The last bit is just random noise)
D|---------------------------------------------------|
D|---------------------------------------------------|
D|-0-2-0-2/3-0-0-2-2-2-2-0-2/3-0-0---xxxxxxxx--------|      x4
D|-0-2-0-2/3-0-0-2-2-2-2-0-2/3-0-0---xxxxxxxx--------| 
D|---------------------------------------------------|
D|---------------------------------------------------|




                (This is very random, just slide  xD )
D|---------------------------------------------------|
D|---------------------------------------------------|
D|---------------------------------------------------|  
D|---------------------------------------------------| 
D|--0--0-0/12~~----0--0-0/12-0/13-13-13/12~~---------|    
Tap to rate this tab
 
# A B C D E F G H I J K L M N O P Q R S T U V W X Y Z