Song name
# A B C D E F G H I J K L M N O P Q R S T U V W X Y Z

Kapitan Korsakov - In The Shade Of The Sun tab

Kapitan Korsakov-In the Shade of the Sun

Amazing song by an amazing Belgian band!

Tuning: Standard
Key: C
Tabbed By: Tim Van de Voorde

Intro riff (Bass part tabbed for guitar)
  Cm               Ab              Eb
E|---------------------------------------------------------------------------------|
B|---------------------------------------------------------------------------------|
G|---------------------------------------------------------------------------------|
D|---------------------------------------------------------------------------------|
A|---------------------------------------------------------------------------------|
E|-8-8-8-8-8-8-8-8-4-4-4-4-4-4-4-4-11-11-11-11-11-11-11-11-11-11-11-11-11-11-11-11-|

O0:42 The guitar comes in with something like this (improvise around this)
E|----------------------------------------------------|
B|--------9---9~---------5---5~-------------12----12~-|
G|------9---9----------6---6-------------13----13-----|
D|---10--------------6----------------13--------------|
A|----------------------------------------------------|
E|-8---------------4---------------11-----------------|

Main riff (1:55)
E|------------------------------------------------------------------|
B|------------------------------------------------------------------|
G|------------------------------------------------------------------|
D|------------------------------------------------------------------|
A|------------------------------------------------------------------|
E|-8-8-8-8-8-8-8-8-11-11-11-11-11-11-11-8-6-6-6-6-6-6-6-6-4-3-4-3-4-|

2:15 Back to intro riff

3:05 Main riff

3:27 Intro riff

4:20 Chords from intro (just strum them once)
Cm-Ab-Eb

4:30 Guitar comes in with the main riff, but an octave higher, so:
E|-----------------------------------------------------------------------------|
B|-----------------------------------------------------------------------------|
G|-----------------------------------------------------------------------------|
D|-10-10-10-10-10-10-10-10-13-13-13-13-13-13-13-10-8-8-8-8-8-8-8-8-6-5-5-6-5-6-|
A|-----------------------------------------------------------------------------|
E|-----------------------------------------------------------------------------|
Very fast strumming!

5:40 Main riff, again an octave lower.

6:17 Solo, contact me if you want this part, I only have a handwritten tab for this. 
Maybe I upload it later on.

7:28 Intro riff

8:40 End

Tabbed by Tim Van de Voorde.
Tap to rate this tab
 
# A B C D E F G H I J K L M N O P Q R S T U V W X Y Z