Song name
# A B C D E F G H I J K L M N O P Q R S T U V W X Y Z

Karakou - Drom tab

    
Allting du ser         allting du hör              inget är fel

  E-------------|-------------|-------------|-------------|
  B---2-2---2-2-|---2-2-------|---4-4---4-4-|---4-4-------|
  G---4-4---4-4-|---4-4-------|---4-4---4-4-|---4-4-------|
  D---4-4---4-4-|---4-4-------|---6-6---6-6-|---6-6-------|
  A-2-----2-----|-2-----2-4-6-|-------------|-------------|
  E-------------|-------------|-4-----4-----|-4-----4-6-7-| 

                       inget vi gör.

  E-------------|-------------|-------------|-------------|
  B---7-7---7-7-|---7-7-------|---4-4---4-4-|---2-2---2-2-|
  G---9-9---9-9-|---9-9-------|---4-4---4-4-|---3-3---3-3-|
  D---9-9---9-9-|---9-9-------|---6-6---6-6-|---4-4---4-4-|
  A-7-----7-----|-7-----7-6---|-------------|-------------|
  E-------------|-----------7-|-4-----4-----|-2-----2-----|  

Allt det du känner      allt det du ber            händer.

  E-------------|-------------|-------------|-------------|
  B---2-2---2-2-|---2-2-------|---4-4---4-4-|---4-4-------|
  G---4-4---4-4-|---4-4-------|---4-4---4-4-|---4-4-------|
  D---4-4---4-4-|---4-4-------|---6-6---6-6-|---6-6-------|
  A-2-----2-----|-2-----2-4-6-|-------------|-------------|
  E-------------|-------------|-4-----4-----|-4-----4-6-7-| 

                                             Tiden står still                

  E-------------|-------------|-------------|-------------|
  B---7-7---7-7-|---7-7-------|---4-4---4-4-|---2-2---2-2-|
  G---9-9---9-9-|---9-9-------|---4-4---4-4-|---3-3---3-3-|
  D---9-9---9-9-|---9-9-------|---6-6---6-6-|---4-4---4-4-|
  A-7-----7-----|-7-----7-6---|-------------|-------------|
  E-------------|-----------7-|-4-----4-----|-2-----2-----|  

              ... (Vissla) ...

  E-------------|-------------|-------------|-------------|
  B---2-2---2-2-|---2-2-------|---4-4---4-4-|---4-4-------|
  G---4-4---4-4-|---4-4-------|---4-4---4-4-|---4-4-------|
  D---4-4---4-4-|---4-4-------|---6-6---6-6-|---6-6-------|
  A-2-----2-----|-2-----2-4-6-|-------------|-------------|
  E-------------|-------------|-4-----4-----|-4-----4-6-7-| 

                                                  

  E-------------|-------------|-------------|-------------|
  B---7-7---7-7-|---7-7-------|---4-4---4-4-|---2-2---2-2-|
  G---9-9---9-9-|---9-9-------|---4-4---4-4-|---3-3---3-3-|
  D---9-9---9-9-|---9-9-------|---6-6---6-6-|---4-4---4-4-|
  A-7-----7-----|-7-----7-6---|-------------|-------------|
  E-------------|-----------7-|-4-----4-----|-2-----2-----|

Allt det du sagt       allting du gjort            allt det du lagt

  E-------------|-------------|-------------|-------------|
  B---2-2---2-2-|---2-2-------|---4-4---4-4-|---4-4-------|
  G---4-4---4-4-|---4-4-------|---4-4---4-4-|---4-4-------|
  D---4-4---4-4-|---4-4-------|---6-6---6-6-|---6-6-------|
  A-2-----2-----|-2-----2-4-6-|-------------|-------------|
  E-------------|-------------|-4-----4-----|-4-----4-6-7-| 

                        tid på.                          

  E-------------|-------------|-------------|-------------|
  B---7-7---7-7-|---7-7-------|---4-4---4-4-|---2-2---2-2-|
  G---9-9---9-9-|---9-9-------|---4-4---4-4-|---3-3---3-3-|
  D---9-9---9-9-|---9-9-------|---6-6---6-6-|---4-4---4-4-|
  A-7-----7-----|-7-----7-6---|-------------|-------------|
  E-------------|-----------7-|-4-----4-----|-2-----2-----| 

Glöms                  spelar det roll             sänk dina ögonlock

  E-------------|-------------|-------------|-------------|
  B---2-2---2-2-|---2-2-------|---4-4---4-4-|---4-4-------|
  G---4-4---4-4-|---4-4-------|---4-4---4-4-|---4-4-------|
  D---4-4---4-4-|---4-4-------|---6-6---6-6-|---6-6-------|
  A-2-----2-----|-2-----2-4-6-|-------------|-------------|
  E-------------|-------------|-4-----4-----|-4-----4-6-7-| 

                        dröm                                              

  E-------------|-------------|-------------|-------------|
  B---7-7---7-7-|---7-7-------|---4-4---4-4-|---2-2---2-2-|
  G---9-9---9-9-|---9-9-------|---4-4---4-4-|---3-3---3-3-|
  D---9-9---9-9-|---9-9-------|---6-6---6-6-|---4-4---4-4-|
  A-7-----7-----|-7-----7-6---|-------------|-------------|
  E-------------|-----------7-|-4-----4-----|-2-----2-----|

   dröm.                 ... (Vissla) ..

  E-------------|-------------|-------------|-------------|
  B---2-2---2-2-|---2-2-------|---4-4---4-4-|---4-4-------|
  G---4-4---4-4-|---4-4-------|---4-4---4-4-|---4-4-------|
  D---4-4---4-4-|---4-4-------|---6-6---6-6-|---6-6-------|
  A-2-----2-----|-2-----2-4-6-|-------------|-------------|
  E-------------|-------------|-4-----4-----|-4-----4-6-7-| 

                                                  

  E-------------|-------------|-------------|-------------|
  B---7-7---7-7-|---7-7-------|---4-4---4-4-|---2-2---2-2-|
  G---9-9---9-9-|---9-9-------|---4-4---4-4-|---3-3---3-3-|
  D---9-9---9-9-|---9-9-------|---6-6---6-6-|---4-4---4-4-|
  A-7-----7-----|-7-----7-6---|-------------|-------------|
  E-------------|-----------7-|-4-----4-----|-2-----2-----|

           ... (Sakta ner något här) ...

  E-------------|-----------------|-----------------|-----------------|
  B---2-2---2-2-|---2-2-2---2-2-2-|-----2-------4---|-----4-------2---|
  G---3-3---3-3-|---4-4-4---4-4-4-|-----4-------4---|-----4-------4---|
  D---4-4---4-4-|---4-4-4---4-4-4-|---4---4-------6-|-------6---4---4-|
  A-------------|-2-------2-------|-2---------6-----|---6-----2-------|
  E-2-----2-----|-----------------|---------4-------|-4---------------| 

                                                                   Du är

  E-----------------|-----------------|-----------------|-----------------|
  B-----4-------7---|-----7-------2---|-----4-------4---|-----4-------7---|
  G-----4-------9---|-----9-------4---|-----4-------4---|-----4-------9---|
  D-------6---9---9-|---9---9---4---4-|-----------------|-----------9---9-|
  A---6-----7-------|-7-------2-------|---6---6---6---6-|---6---6-7-------|
  E-4---------------|-----------------|-4-------4-------|-4---------------|

   allt jag vill ha           Du är allt jag vill ha             Och jag

  E-----------------|-----------------|-----------------|-----------------|
  B-----2-------2---|-----2-------7---|-----2-------2---|-----2-------7---|
  G-----3-------4---|-----4-------9---|-----3-------4---|-----4-------9---|
  D-------4---4---4-|---4---4---9---9-|-------4---4---4-|---4---4---9---9-|
  A---4-----2-------|-2-------7-------|---4-----2-------|-2-------7-------|
  E-2---------------|-----------------|-2---------------|-----------------|

  undrar vad du gör                    Du är allt jag vill ha

  E-----------------|-----------------|-----------------|-----------------|
  B-----2-------2---|-----4-------4---|-----7-------2---|-----2-------2---|
  G-----3-------4---|-----4-------4---|-----9-------3---|-----4-------4---|
  D-------4---4---4-|-------6-------6-|---9---9-------4-|---4---4---4---4-|
  A---4-----2-------|---6-------6-----|-7---------4-----|-2-------2-------|
  E-2---------------|-4-------4-------|---------2-------|-----------------|



  E-----------------|---|
  B-----2-------2---|---|
  G-----4-------4---|---|
  D---4---4---4---4-|---|
  A-2-------2-------|-2-|
  E-----------------|---|
Tap to rate this tab
# A B C D E F G H I J K L M N O P Q R S T U V W X Y Z