Song name
# A B C D E F G H I J K L M N O P Q R S T U V W X Y Z

Kara's Flowers - Sleepy Wind Breaker tab

e|-------------------------------------------------------------------------|
B|-------------------------------------------------------------------------|
G|---0---------0-----------------------------------------------------------|
D|-----4-0-2-----3---------------------------------------------------------|
A|-----------3-------------------------------------------------------------|
E|-3-----------------------------------------------------------------------|

e|-------------------------------------------------------------------------|
B|-------------------------------------------------------------------------|
G|---------444444445555555577777777----------------------------------------|
D|-55555555444444445555555577777777----------------------------------------|
A|-55555555222222223333333355555555----------------------------------------|
E|-33333333----------------------------------------------------------------|

e|-------------------------------------------------------------------------|
B|-------------------------------------------------------------------------|
G|---------444444443333333333333333--------444444447777777777777777--------|
D|-5555555544444444333333333333333355555555444444447777777777777777--------|
A|-5555555522222222111111111111111155555555222222225555555555555555--------|
E|-33333333------------------------33333333--------------------------------|

e|-------------------------------------------------------------------------|
B|-------------------------------------------------------------------------|
G|-99999999888888887777777766666666----------------------------------------|
D|-99999999888888887777777766666666----------------------------------------|
A|-77777777666666665555555544444444----------------------------------------|
E|-------------------------------------------------------------------------|

e|-------------------------------------------------------------------------|
B|-------------------------------------------------------------------------|
G|---0-----------0-----0-2-------------------------------------------------|
D|-----3-0-0-2-----4-4-----------------------------------------------------|
A|-------------3-----------------------------------------------------------|
E|-3-----------------------------------------------------------------------|
Tap to rate this tab
# A B C D E F G H I J K L M N O P Q R S T U V W X Y Z