Song name
# A B C D E F G H I J K L M N O P Q R S T U V W X Y Z

Kara's Flowers - Soap Disco tab

 Soap Disco by Kara's Flowers
--------------------------------
Tabbed by: Marty
i just figured this out tonight..i havent really critiqued it yet but nobody else is 
it! when you see the tabs..play them as power chords...


Verse: (Repeat)
e|-----------------------------------------------------------------------------|
B|-----------------------------------------------------------------------------|
G|-----------------------------------------------------------------------------|
D|-----------------------------------------------------------------------------|
A|------3---------3------------------------------------------------------------|
E|-1----------1----------------------------------------------------------------|

Chorus:
e|------------------------------------8--------------------------------------------|
B|------------------------------------8--9-----------------------------------------|
G|------------------------------------8--10----------------------------------------|
D|---------5--------------------------8--10----------------------------------------|
A|-----3-------------7----------3-----8--------------------------------------------|
E|-------------5------------1------------------------------------------------------|

Solo:
e|-----------------------------------------------------------------------------|
B|-----------6---5-------------------------------------------------------------|
G|-----------------------7--5--4-----------------------------------------------|
D|-- /7 -----------------------------------------------------------------------|
A|-----------------------------------------------------------------------------|
E|-----------------------------------------------------------------------------|

After the solo go back to the verse and so forth...this isnt a very good tab but you kno 
works..it might be confusing to read..but u'll get it sooner or later...sorry guys
Tap to rate this tab
# A B C D E F G H I J K L M N O P Q R S T U V W X Y Z