Song name
# A B C D E F G H I J K L M N O P Q R S T U V W X Y Z

Karas Flowers - Take What You Want tab

First tablature ever. Please take it easy on the comments.

I heard this song off of Maroon 5's "Songs About Jane: 10th Anniversary Edition". I
loved the intro/solo so much. I wanted to figure it out, but then I couldn't find any tabs
for it. Just the arpeggios that play during the verses. So I was forced to make one of 
my own from ear. I checked the song repeatedly. Here's what I came up with. lml

-------------------------------------------------------------------------------
                             TAKE WHAT YOU WANT - Kara's Flowers
-------------------------------------------------------------------------------
Tabbed by: daniel_UG.com
E-mail: dycurlee@gmail.com

http://open.spotify.com/album/5zClcGCSWj926AMjvBNSLc

Tuning: Standard Tuning (EADGBe)

|------------------------------------------------------------------------------|
|-------7---7-7-7---7-7-7-----------------------------------+7-----------------|
|-------7---7h9-7---7h9-7-7---7----------7-7-7--7-6h7h6------------------------|
|-xx-/9---9-------9-------7h9-7-------9-----------------8----------------------|
|-------------------------------9-8-7----------------------9-------------------|
|------------------------------------------------------------------------------|

|-b5br------5---------------------------------------------------------------|
|------5-b5---b5-3-5-3------------------3p2p0-------------------------------|
|-----------------------4-2/4-2-----2-4-------------------------------------|
|--------------------------------2/4------------2/4-------------------------|
|---------------------------------------------------------------------------|
|---------------------------------------------------------------------------|

************************************

| /   slide up
| \   slide down
| h   hammer-on
| p   pull-off
| ~   vibrato
| +   harmonic
| x   Mute note
| b   Bend
| pb  Pre-bend
| br  Bend release
| pbr Pre-bend release
| brb Bend release bend

************************************
Tap to rate this tab
# A B C D E F G H I J K L M N O P Q R S T U V W X Y Z