Song name
# A B C D E F G H I J K L M N O P Q R S T U V W X Y Z

Karas Flowers - My Ocean Blue chords

Highlighted       Show chord diagrams
My Ocean Blue by Kara's Flowers
Tabbed by Ramonn
Standard EADGBe Tuning

Intro:
-2--------6--------4---------------|
---2---2----7---7----4---4--6------|
-----3--------8--------5-----------|
-----------------------------------|
-----------------------------------|
-----------------------------------|

Verse:
F#
I once heard Captain Dan tell me a story
F#
About this lovely girl who's name was Jane
F#                                    Ebm
She was vast and deep and filled with glory
Ab      Db
Aaaahhhh

Break:
F# - A

Verse:
F#
Bottom served as home for hull and anchor
F#
She's always fit to quarrel with the wind
F#                                  Ebm
The great Titanic yes it's she that sank her
Ab     Db
Aaaahhhh

Bridge:
Abm
Then she heard me
F#
Say that oath that
Abm              Db
Made everything clear

Chorus:
F#      Ebm
I love you
   Ab       Dbm
My ocean blue
                    F#       B
I like the way your sea sees me
   Ab      Em
My darling Jane
    F#                                    B
She speaks to me at times through falling rain

Break:
F# - Bbm - B - F#

Verse:
F#
Now twas time to manifest her vigor
F#
Was she fit to quarrel with the wind?
F#                                       Ebm
The air was strong but Jane she was much bigger
Ab      Db
Aaaaahhhh

Bridge:
Abm
Then she heard me
F#
say that oath that
Abm             Db
made everything clear

Chorus:
F#     Ebm
I love you
   Abm   Dbm
My ocean blue
                    F#       B
I like the way your sea sees me
   Ab      Em
My darling Jane
   B      Ab      G
Oh me, my darling Jane
   B         Abm     Em
Oh me and my darling Jane
    B               F#                    B      E
She speaks to me at times through falling rain
B               F#                    B
Speaks to me at times through falling rain

Solo:
E       B
(2:35) (2:37)
B
(2:39-2:40)
B
(2:41-2:43)
B
(2:44-2:46)
E
(2:46-2:48)
B
(2:48-2:50)
E
(2:51-2:53)
B
(2:53-2:55)
E
(2:55-2:57)
B - F# - B
(2:58-3:00)
B
(3:02)

Chords Used:
e -2---6---4---4---0---4---4---2---0---6---1---0------
B -2---8---4---6---2---4---5---4---0---6---0---0------
G -3---7---5---6---2---4---6---4---0---6---0---1------
D -4---7---6---6---2---6---6---4---2---8---0---2------
A -4---6---6---4---0---6---4---2---2---8---2---2------
E -2---X---4---X---X---4---X---X---0---6---3---0------
   F# Ebm  Ab  Db  A  Abm Dbm  B   Em  Bbm G   E
Tap to rate this tab
# A B C D E F G H I J K L M N O P Q R S T U V W X Y Z