Guitaretab - guitar tabs
Song name
# A B C D E F G H I J K L M N O P Q R S T U V W X Y Z

Kara's Flowers - To Her With Love tab

To Her, With Love
Karas Flowers
The Fourth World

Tabbed by: Danielle Weitzman
Email: Jewelgirl04@aol.com

Tuning: Eb Ab Db Gb Bb eb

Intro

e|-------------------------------------------------------------------------|
B|-0------0---------0---------1-----3------1-------1--3------3-------------|
G|---0-------0---0-----0---0-----0-----0------2---------2------------------|
D|-----0-------0--------------------------------2---------0----------------|
A|-----------------------2----2-----2------0-------------------------------|
E|-3------1---------0---------------------------------2--------------------|

e|------3-----3-----5-----7-------7------7-----6------6--5----3------------|
B|-0-------------------------0------0------0-----4---------4----4----------|
G|---0-----0-----0-----0-------0------0--------5---5-----5-----------------|
D|-------------------------------------------------------------------------|
A|-------------------------------------------------------------------------|
E|-3----3-----1-----------0------------------------------------------------|

e|-5------5--3----2--------------------------------------------------------|
B|---4---------4----0------------------------------------------------------|
G|-----5-------------------------------------------------------------------|
D|-------------------------------------------------------------------------|
A|-------------------------------------------------------------------------|
E|-------------------------------------------------------------------------|

Verse

e|-------------------------------------------------|---0----3----0----3|
B|--0--------0---0---------0-----------1------3----|---1----0----1----0|
G|-----0------------0---------0-----0-----0------0-|---0----0----0----0|
D|--------0------------0---------------------------|---2----0----2----0|
A|-------------------------------2-----2------2----|---3----2----3----2|
E|--3------------1---------0-----------------------|--------3---------3|
[ Tab from: http://www.guitaretab.com/k/karas-flowers/64199.html ]
e|-0---------3----0----2-------0------0--------------------------------|
B|-1----5----0----2----3----------3------3-----------------------------|
G|-0----6----0----0----2------------3------3---------------------------|
D|-2----5----0----2----0----0------------------------------------------|
A|-3----4----2----0----------------------------------------------------|
E|-----------3---------------------------------------------------------| (x2)

Chorus

e|--3---------0----0----0---------3----3----1----0----0--------------------|
B|--0----3----0----0----1----3----0----0----1----0----0--------------------|
G|--0----2----0----0----2----2----0----0----2----0----2--------------------|
D|--0----0----2----2----2----0----0----0----3----2----3--------------------|
A|--2----x----2----2----0----x----2----2----3----2----3--------------------|
E|--3----2----0----0---------2----3----3----1----0----1--------------------|

Verse

e|-------------------------------------------------|---0----3----0----3|
B|--0--------0---0---------0-----------1------3----|---1----0----1----0|
G|-----0------------0---------0-----0-----0------0-|---0----0----0----0|
D|--------0------------0---------------------------|---2----0----2----0|
A|-------------------------------2-----2------2----|---3----2----3----2|
E|--3------------1---------0-----------------------|--------3---------3|

e|-0---------3----0----2-------0------0--------------------------------|
B|-1----5----0----2----3----------3------3-----------------------------|
G|-0----6----0----0----2------------3------3---------------------------|
D|-2----5----0----2----0----0------------------------------------------|
A|-3----4----2----0----------------------------------------------------|
E|-----------3---------------------------------------------------------|

Chorus

e|--3---------0----0----0---------3----3----1----0----0----3----3----------|
B|--0----3----0----0----1----3----0----0----1----0----0----4----0----------|
G|--0----2----0----0----2----2----0----0----2----0----2----5----0----------|
D|--0----0----2----2----2----0----0----0----3----2----3----5----0----------|
A|--2----x----2----2----0----x----2----2----3----2----3----3----2----------|
E|--3----2----0----0---------2----3----3----1----0----1---------3----------|



| /  slide up
| \  slide down
| h  hammer-on
| p  pull-off
| ~  vibrato
| +  harmonic
| x  Mute note

Related for To Her With Love tab