Guitaretab - guitar tabs
Song name
# A B C D E F G H I J K L M N O P Q R S T U V W X Y Z

Kara's Flowers - Someone More Comfortable tab

Someone More Comfortable
By Karaís Flowers
Tabbed by Joe Chammas

Just listen to the song to get the timing down. The strumming pattern is a simple reggae-like muting pattern.

x means muted notes
/ means slide up
\ means slide down

Intro x2
e|--x--x--5--5--x--5-------9\7----------------------------------------|
B|--x--x--5--5--x--5--------------------------------------------------|
G|--x--x--6--6--x--6---7/9--------------------------------------------|
D|--x--x--7--7--x--7--------------------------------------------------|
A|--x--x--7--7--x--7--------------------------------------------------|
E|--x--x--5--5--x--5--------------------------------------------------|

Verse
A D A D*

Chorus
D A D A F#m E

Break
A A A A E
[ Tab from: http://www.guitaretab.com/k/karas-flowers/73147.html ]
Iím not entirely sure about the slides in the outro but I think itís something like this:
Outro
e|--x--x--5--5--x--5---9\7---7\5---5\4---4\2---2-0--------------------|
B|--x--x--5--5--x--5-------7-----5-----4-----2------------------------|
G|--x--x--6--6--x--6--------------------------------------------------|
D|--x--x--7--7--x--7--------------------------------------------------|
A|--x--x--7--7--x--7--------------------------------------------------|
E|--x--x--5--5--x--5--------------------------------------------------|


Chords Used:
e|--5--5--10--2---0---------------------------------------------------|
B|--5--7--10--2---0---------------------------------------------------|
G|--6--7--11--2---1---------------------------------------------------|
D|--7--7--12--4---2---------------------------------------------------|
A|--7--5--12--4---2---------------------------------------------------|
E|--5-----10--2---0---------------------------------------------------|
    A  D  D*  F#m E
Related for Someone More Comfortable tab