Guitaretab - guitar tabs
Song name
# A B C D E F G H I J K L M N O P Q R S T U V W X Y Z

Kara's Flowers - Captain Splendid tab

Captain Splendid
By Karas Flowers
Tabbed by Joe Chammas

Just listen to the song to get the timing down. An amazing song thats a blast to play.

^ means bend up
v means bend down
/ means slide up
\ means slide down

Intro
e|--2----2---2---------------------4-4--3-3-3--|
B|--2-----2---2--------------------4-4--3-3-3--|
G|--4---4------4-----4-----4-------4-4--3-3-3--|
D|--4--4--------4---4-4---4-4------6-6--5-5-5--|
A|--2------------------------------6-6--5-5-5--|
E|-----------------6-----6---6--4--4-4--3-3-3--|

Verse		    Verse 2 brk. Chorus
e|--2--x--4--3--2--|--7-6-5--7--|--2--x--4--3--|
B|--4--4--4--3--4--|--7-6-5--7--|--4--4--4--3--|
G|--4--4--4--3--4--|--8-7-6--8--|--4--4--4--3--|
D|--4--4--6--5--4--|--9-8-7--9--|--4--4--6--5--|
A|--2--6--6--5--2--|--9-8-7--9--|--2--6--6--5--|
E|-----6--4--3-----|--7-6-5--7--|-----6--4--3--|		

Break
e|-11-14-11-16^\14v--11-14-11-16^\14v---11-9--|
B|--0--0--0-14^\12v---0--0--0-14^\12v----0-0--|
G|--------------------------------------------|
D|--------------------------------------------|
A|--------------------------------------------|
E|--------------------------------------------|

e|-11-14-11-16^\14v--11-14-11-16^\14v11-9-9-10-7|
B|--0--0--0-14^\12v---0--0--0-14^\12v--0-0-0--0-0|
G|-----------------------------------------------|
D|-----------------------------------------------|
A|-----------------------------------------------|
E|-----------------------------------------------|
[ Tab from: http://www.guitaretab.com/k/karas-flowers/73148.html ]
Buildup
e|-------------------------------------------------------------------|
B|-------------------------------------------------------------------|
G|-------------------------------------------------------------------|
D|----4-1-2-3-4-3-4---4-1-2-3-4-3-4---4-1-2-3-4-3-4---4-1-2-3-4-3-4--|
A|--2---------------2------------------------------------------------|
E|----------------------------------4---------------4----------------|

Final Chorus
e|-------------------------------------------------------------------|
B|-------------------------------------------------------------------|
G|-------------------------------------------------------------------|
D|--4-4-4-4-4-4-4-4--------------------------------------------------|
A|--2-2-2-2-2-2-2-2-8-8-8-8-8-8-8-8-6-6-6-6-6-6-6-6-5-5-5-5-5-5-5-5--|
E|------------------6-6-6-6-6-6-6-6-4-4-4-4-4-4-4-4-3-3-3-3-3-3-3-3--|





Solo after final chorus
e|-------------------------------------------------11-7-9-------------|
B|--4-7-4-7^7v2h3p2-0 2/4-0-2----4-7-4-7^7v7/9-9--------------------|
G|--------------------------------------------------------------------|
D|--------------------------------------------------------------------|
A|--------------------------------------------------------------------|
E|--------------------------------------------------------------------|

e|--------------------------------------------7/10-9-7-9/11-----------|
B|--4-7-4-7^7v2h3p2-0 2/4-0-2----4-7-4-7^7v-------------------------|
G|--------------------------------------------------------------------|
D|--------------------------------------------------------------------|
A|--------------------------------------------------------------------|
E|--------------------------------------------------------------------|



Outro
e|---------------------------------------3------7---------------------|
B|--4-5-7--4------4-5-2-----------4--------3------7-------------------|
G|-----------4-------------4--------4--------3------8-----------------|
D|--4-4-4------4--4-4-4------4----6---6--5------9-----9---------------|
A|-----------------------------2--------------------------------------|
E|--------------------------------------------------------------------|
Related for Captain Splendid tab