Song name
# A B C D E F G H I J K L M N O P Q R S T U V W X Y Z

Karate Chop Avalanche - Woah Oh tab

Band:Forever The Sickest Kids
Song:Woah Oh!(Me Vs. Everyone)
Tuning:Drop D

   Guitar         Guitar 
     1              2
Caleb Turman    Marc Stewart
   Rhythm          Lead
   (Top)         (Bottom)



Guitar 1
Intro(Distorted)
E|-----------------------------------------|
B|-----------------------------------------|
G|-----------------------7-----------------|
D|-0-5-0-5-7-0-4-5-4-0-0-x-0---------------|
A|-0-5-0-5-7-0-4-5-4-0-0-5-0-5-4h5h4h5p0---|
D|-0-5-0-5-7-0-4-5-4-0-0---0---------------|
                       *   *
E|------------------------------|
B|------------------------------|
G|------------------7-----------|
D|-77-5-0-4-5-4-0-0-x-0---------|
A|-77-5-0-4-5-4-0-0-5-0-5-7-5---|
D|-77-5-0-4-5-4-0-0---0---------|
                  *   *
E|--------------------------------------------|
B|--------------------------------------------|
G|--------------------------------------------|
D|-55-7-0-4-5-4-9-9999-777-0-55-7-0-4-5-4-0~--|
A|-55-7-0-4-5-4-9-9999-777-0-55-7-0-4-5-4-0---|
D|-55-7-0-4-5-4-9-9999-777-0-55-7-0-4-5-4-0---|x1

Guitar 2
Intro (Distorted)

E|-----------------------------------------------------|
B|-------33-5-3-2-3-2-------222-55-3-22-3-2-------222--|
G|-------22-2-2-2-2-2-22222-222-22-2-22-2-2-22222-222--|
D|-0-5-0--------------00000-----------------00000------|
A|-0-5-0-----------------------------------------------|
D|-0-5-0-----------------------------------------------|

E|--------------22222-------------------------|
B|-33-5-3-2-3-2-xxxxx-555-33-5-3-2-3-2--------|
G|-22-2-2-2-2-2-22222-222-22-2-2-2-2-2-2~-----|
D|-------------------------------------0------|
A|--------------------------------------------|
D|--------------------------------------------|x1

Guitar 1
Verse (Clean) Listen to song for right struming!

E|-----------------------------------------------|
B|-----------------------------------------------|
G|-7-7-777777-7-7-777777-7-7-777777-7-7-777777---|
D|-7-7-777777-7-7-777777-7-7-777777-7-7-777777---|
A|-----------------------------------------------|
D|-5-5-555555-7-7-777777-0-0-000000-5-5-555555---|

E|-----------------------------------------------|
B|-----------------------------------------------|
G|-7-7-777777-7-7-777777-7-7-777777-7-7-777777---|
D|-7-7-777777-7-7-777777-7-7-777777-7-7-777777---|
A|-----------------------------------------------|
D|-5-5-555555-7-7-777777-0-0-000000-0-0-000000---|x1

Verse Continued (Distorted)

E|---------------------------------------|
B|---------------------------------------|
G|-77777777-77777777-7777777777777777----|
D|-77777777-77777777-7777777777777777----|
A|---------------------------------------|
D|-55555555-77777777-0000000000000000----|
   ** ** *  ** **    ** ** * ** **
E|-------------------------------|
B|-------------------------------|
G|-77777777-77777777-77777777-S--|
D|-77777777-77777777-77777777-T--|
A|----------------------------O--|
D|-55555555-77777777-00000000-P--|x1
   ** ** *  ** **    ** ** * 

Guitar 2
Verse (Distorted) Come in at 00:29!

E|----------------------------------|
B|---8-7---8-7---8-7-12-10-7-8-7----|
G|-7-----7-----7-----------------7--|
D|----------------------------------|
A|----------------------------------|
D|----------------------------------|x3 (Palm mute on 1 and 3)
   * * * * * * * * * *  *  * * * 
E|----------------------|
B|---8-7---8-7---8-7----|
G|-7-----7-----7-----7--|
D|----------------------|
A|----------------------|
D|----------------------|x1

Guitar 1
Chorus (Distorted)

E|------------------------------|
B|------------------------------|
G|------------------------------|
D|-55555555-00000000-77777777---|
A|-55555555-00000000-77777777---|
D|-55555555-00000000-77777777---|
   
E|-----------------------------------|
B|-----------------------------------|
G|-----------------------------------|
D|-55555555-00000000-777777-777-7777-|
A|-55555555-00000000-777777-777-7777-|
D|-55555555-00000000-777777-777-7777-|

Clean verse once before verse 2
E|-----------------------------------------------|
B|-----------------------------------------------|
G|-7-7-777777-7-7-777777-7-7-777777-7-7-777777---|
D|-7-7-777777-7-7-777777-7-7-777777-7-7-777777---|
A|-----------------------------------------------|
D|-5-5-555555-7-7-777777-0-0-000000-0-0-000000---|x1

Guitar 2
Chorus (Distorted)

E|-------------------------------------|
B|-------------------------------------|
G|-7777777777777777-9999999999999999---|
D|-xxxxxxxxxxxxxxxx-xxxxxxxxxxxxxxxx---|
A|-5555555555555555-7777777777777777---|
D|-------------------------------------|

E|--------------------------------------|
B|--------------------------------------|
G|-7777777777777777--999999-999-9999----|
D|-xxxxxxxxxxxxxxxx--xxxxxx-xxx-xxxx----|
A|-5555555555555555--777777-777-7777----|
D|--------------------------------------|x1

Guitar 1
Verse 2 (Distorted) Come in at 1:15!

E|---------------------------------------|
B|---------------------------------------|
G|-77777777-77777777-7777777777777777----|
D|-77777777-77777777-7777777777777777----|
A|---------------------------------------|
D|-55555555-77777777-0000000000000000----|x1
   ** ** *  ** **    ** ** * ** **

Pre-Chorus
1:26
E|----|
B|----|
G|-7~-|
D|-7--|
A|----|
D|-0--|

Guitar 2
Verse 2 (Distorted) Come in at 1:02!

E|------------------------------------------|
B|------------------------------------------|
G|-7--7-9-7-6--6-7-6-14-14-12-11-9-9-9-9----|
D|-x--x-x-x-x--x-x-x-x---x--x--x-x-x-x-x----|
A|-5--5-7-5-4--4-5-4-12--12-10-9-7-7-7-7----|
D|------------------------------------------|x2

E|---------------------------------------------------|
B|---------------------------------------------------|
G|-777777-9-7-66666-7-6-1414141414-12-11-99999-11-11-|
D|-xxxxxx-x-x-xxxxx-x-x-x-x-x-x-x--x--x--xxxxx-x--x--|
A|-555555-7-5-44444-5-4-1212121212-10-9--77777-9--9--|
D|---------------------------------------------------|x1

Pre-Chorus
1:22
E|------------------|
B|------------------|
G|-9-11-9-14~-11----|
D|-x-x--x-x---x-----|
A|-7-9--7-12--9/----|
D|------------------|

Guitar 1
Chorus (Distorted)

E|------------------------------|
B|------------------------------|
G|------------------------------|
D|-55555555-00000000-77777777---|
A|-55555555-00000000-77777777---|
D|-55555555-00000000-77777777---|
   
E|-----------------------------------|
B|-----------------------------------|
G|-----------------------------------|
D|-55555555-00000000-777777-777-7777-|
A|-55555555-00000000-777777-777-7777-|
D|-55555555-00000000-777777-777-7777-|

E|---------------------------------------------|
B|---------------------------------------------|
G|---------------------------------------------|
D|-55555555-77777777-99999999-1212121212-999---|
A|-55555555-77777777-99999999-1212121212-999---|
D|-55555555-77777777-99999999-1212121212-999---|

E|---------------------------------------|
B|---------------------------------------|
G|---------------------------------------|
D|-55555555-00000000-77777777-7-7-777-0--|
A|-55555555-00000000-77777777-7-7-777-0--|
D|-55555555-00000000-77777777-7-7-777-0--|x1
                                  ***

Guitar 2
Chorus (Distorted)

E|-------------------------------------|
B|-------------------------------------|
G|-7777777777777777-9999999999999999---|
D|-xxxxxxxxxxxxxxxx-xxxxxxxxxxxxxxxx---|
A|-5555555555555555-7777777777777777---|
D|-------------------------------------|

E|--------------------------------------|
B|--------------------------------------|
G|-7777777777777777--999999-999-9999----|
D|-xxxxxxxxxxxxxxxx--xxxxxx-xxx-xxxx----|
A|-5555555555555555--777777-777-7777----|
D|--------------------------------------|

(The 11's and 14's are the same speed as the 5x7's and the 7x9's)
E|------------------------------------------------------------------|
B|------------------------------------------------------------------|
G|-77777777-99999999-11-11-11-11-11-11-11-11-14141414--11-11-11-11--|
D|-xxxxxxxx-xxxxxxxx-x--x--x--x--x--x--x--x--x-x-x-x---x--x--x--x---|
A|-55555555-77777777-9--9--9--9--9--9--9--9--12121212--9--9--9--9---|
D|------------------------------------------------------------------|

E|-------------------------------------|
B|-------------------------------------|
G|-7777777777777777--99999999-9-9-999--|
D|-xxxxxxxxxxxxxxxx--xxxxxxxx-x-x-xxx--|
A|-5555555555555555--77777777-7-7-777--|
D|-------------------------------------|x1
                                  ***

Bridge/Breakdown
1:56

Both Guitars (Distorted)

E|-----------|
B|-----------|
G|-----------|
D|-5~-0~~----|
A|-5--0------|
D|-5--0------|x1

E|------------------------------------------|
B|------------------------------------------|
G|------------------------------------------|
D|-5555555555555555-77777777-9999-121212----|
A|-5555555555555555-77777777-9999-121212----|
D|-5555555555555555-77777777-9999-121212----|
   **************** ******** **** * * *

E|---------------------------------------------|
B|---------------------------------------------|
G|---------------------------------------------|
D|-55555555-77777777-99999999-12121212121212---|
A|-55555555-77777777-99999999-12121212121212---|
D|-55555555-77777777-99999999-12121212121212---|
   ******** ******** ********

Mixed up Intro (Distorted)
(Just Guitar 1 and bass from 2:29-2:34)

E|------------------------|
B|------------------------|
G|------------------------|
D|-55-7-0-4-5-4-000-000---|
A|-55-7-0-4-5-4-000-000---|
D|-55-7-0-4-5-4-000-000---|
                *** ***
E|-----------------------------|
B|-----------------------------|
G|-----------------------------|
D|-55-7-0-4-5-4-000-00000000---|
A|-55-7-0-4-5-4-000-00000000---|
D|-55-7-0-4-5-4-000-00000000---|
                *** ********
E|--------------------------------------------------|
B|--------------------------------------------------|
G|--------------------------------------------------|
B|--------------------------------------------------|
G|--------------------------------------------------|
D|-55-7-0-4-5-4-9-9999-777-0-55-7-0-4-5-4-000-------|
A|-55-7-0-4-5-4-9-9999-777-0-55-7-0-4-5-4-000-------|
D|-55-7-0-4-5-4-9-9999-777-0-55-7-0-4-5-4-000-12/---|x1

Guitar 2 (Distorted)
Mized up into
2:34

E|---------------------------22222---------------------------|
B|--------------33-5-3-2-3-2-xxxxx-555-33-5-3-2-3-2----------|
G|--------------22-2-2-2-2-2-22222-222-22-2-2-2-2-2-222------|
D|-000-00000000-------------------------------------000------|
A|-000-00000000----------------------------------------------|
D|-000-00000000-----------------------------------------12/--|
   *** ********

Guitar 1
Chorus (Distorted)

E|------------------------------|
B|------------------------------|
G|------------------------------|
D|-55555555-00000000-77777777---|
A|-55555555-00000000-77777777---|
D|-55555555-00000000-77777777---|
   
E|-----------------------------------|
B|-----------------------------------|
G|-----------------------------------|
D|-55555555-00000000-777777-777-7777-|
A|-55555555-00000000-777777-777-7777-|
D|-55555555-00000000-777777-777-7777-|

E|---------------------------------------------|
B|---------------------------------------------|
G|---------------------------------------------|
D|-55555555-77777777-99999999-1212121212-999---|
A|-55555555-77777777-99999999-1212121212-999---|
D|-55555555-77777777-99999999-1212121212-999---|

E|-----------------------------------------------|
B|-----------------------------------------------|
G|-----------------------------------------------|
D|-55555555-77777777-9-9-99-1212121212-99-0-5~---|
A|-55555555-77777777-9-9-99-1212121212-99-0-5----|
D|-55555555-77777777-9-9-99-1212121212-99-0-5----|x1


Guitar 2
Chorus (Distorted)

E|-------------------------------------|
B|-------------------------------------|
G|-7777777777777777-9999999999999999---|
D|-xxxxxxxxxxxxxxxx-xxxxxxxxxxxxxxxx---|
A|-5555555555555555-7777777777777777---|
D|-------------------------------------|

E|--------------------------------------|
B|--------------------------------------|
G|-7777777777777777--999999-999-9999----|
D|-xxxxxxxxxxxxxxxx--xxxxxx-xxx-xxxx----|
A|-5555555555555555--777777-777-7777----|
D|--------------------------------------|

(The 11's and 14's are the same speed as the 5x7's and the 7x9's)
E|------------------------------------------------------------------|
B|------------------------------------------------------------------|
G|-77777777-99999999-11-11-11-11-11-11-11-11-14141414--11-11-11-11--|
D|-xxxxxxxx-xxxxxxxx-x--x--x--x--x--x--x--x--x-x-x-x---x--x--x--x---|
A|-55555555-77777777-9--9--9--9--9--9--9--9--12121212--9--9--9--9---|
D|------------------------------------------------------------------|

E|---------------------------------------------------------|
B|---------------------------------------------------------|
G|-77777777-99999999-11-11-11-11-14141414-11-11-11-11-7~---|
D|-xxxxxxxx-xxxxxxxx-x--x--x--x--x-x-x-x--x--x--x--x--X----|
A|-55555555-77777777-9--9--9--9--12121212-9--9--9--9--5----|
D|---------------------------------------------------------|x1


* Palm Mute
/ Slide


                       
                  


Tap to rate this tab
# A B C D E F G H I J K L M N O P Q R S T U V W X Y Z