Song name
# A B C D E F G H I J K L M N O P Q R S T U V W X Y Z

Karate High School - Burning Up For You tab

Just the intro.
The rest is too electronic to make out.

First time
e |----------------------|
b |----------------------|
g |----------------------|
d |5-5-3-------5-5-3-2-0-|
a |5-5-3-------5-5-3-2-0-|
d |5-5-3-------5-5-3-2-0-|


Two More Times
e |------------------------------------|
b |------------------------------------|
g |------------------------------------|
d |5-5-3-------5-5-3-------5-5-5-3-2-0-|
a |5-5-3-------5-5-3-------5-5-5-3-2-0-|
d |5-5-3-------5-5-3-------5-5-5-3-2-0-|
Tap to rate this tab
# A B C D E F G H I J K L M N O P Q R S T U V W X Y Z