Song name
# A B C D E F G H I J K L M N O P Q R S T U V W X Y Z

Karate High School - Zombies Everywhere tab

I dont know if this is correct but its the way i play it sooo ^_^ i think its 
right---It is fun though =)TAB ENTERED BY LANEY KAY!!!
*-Palm Mute
x-Dead
/-Slide Up
\-lide Down

Do This After The Drum Intro
eb|-----------|
Bb|-----------|
Gb|-----------|
Db|-0~--------|
Ab|-0~--------|
Eb|-0~--------|
    *
After That Up There This Is The Pre-Chorus
eb|------------------------------------------------------------|
Bb|------------------------------------------------------------|
Gb|------------------------------------------------------------|
Db|-5555-5555-5555-5555----------------------------------------|
Ab|-3333-3333-3333-3333-5555-5555-5555-5555-7777-7777-7777-7777|
Eb|---------------------3333-3333-3333-3333-5555-5555-5555-5555|
     ***  ***  ***  ***  ***  ***  ***  ***  ***  ***  ***  ***

eb|----------------------|
Bb|----------------------|
Gb|----------------------|
Db|----------------------|
Ab|-3333-3333-3333-3333--|
Eb|-1111-1111-1111-1111--|
     ***  ***  ***  ***

Chorus(Zombies Everywhere)


eb|-----------------------------------------------------|
Bb|-----------------------------------------------------|
Gb|-----------------------------------------------------|
Db|-55-55~-555------------------------------------------|
Ab|-33-33~-333-55-555555--77-77~-777--33-3-33333-3-333--|
Eb|------------33-333333--55-55~-555--11-1-11111-1-111--|
                                      ** * ***** * ***

After Chorus (I Saw You Die That Day)

eb|-------------------------------------------------------|
Bb|-------------------------------------------------------|
Gb|-------------------------------------------------------|
Db|-5555555555555555--------------------------------------|
Ab|-3333333333333333-5555555555555555-7777777777777777-3~-|
Eb|------------------3333333333333333-5555555555555555-1~-|
    **************** **************** ****************

Pre-Chorus (My Phone Rings and Its My Mom)


eb|----------------------------------------------------|
Bb|----------------------------------------------------|
Gb|----------------------------------------------------|
Db|-55-5-55555-5-555-----------------------------------|
Ab|-33-3-33333-3-333-55-5-55555-5-555-77-7-77777-7-777-|
Eb|------------------33-3-33333-3-333-55-5-55555-5-555-|

Im Not 100% Sure About This But I Play It This Way On This Part Comment If This Is Right Please =)
eb|----------------------|
Bb|----------------------|
Gb|----------------------|
Db|-------5--------------|
Ab|-3/5\3-3--------------|
Eb|-1/3\1----------------|


-again-


eb|------------------------------------------------------------|
Bb|------------------------------------------------------------|
Gb|------------------------------------------------------------|
Db|-5555-5555-5555-5555----------------------------------------|
Ab|-3333-3333-3333-3333-5555-5555-5555-5555-7777-7777-7777-7777|
Eb|---------------------3333-3333-3333-3333-5555-5555-5555-5555|
     ***  ***  ***  ***  ***  ***  ***  ***  ***  ***  ***  ***
 
eb|----------------------|
Bb|----------------------|
Gb|----------------------|
Db|----------------------|
Ab|-3333-3333-3333-3333--|
Eb|-1111-1111-1111-1111--|
     ***  ***  ***  ***

Chorus(Zombies Everywhere)


eb|-----------------------------------------------------|
Bb|-----------------------------------------------------|
Gb|-----------------------------------------------------|
Db|-55-55~-555------------------------------------------|
Ab|-33-33~-333-55-555555--77-77~-777--33-3-33333-3-333--|
Eb|------------33-333333--55-55~-555--11-1-11111-1-111--|
                                      ** * ***** * ***

After Chorus (I See Them Feeding On Skin)
eb|-------------------------------------------------------|
Bb|-------------------------------------------------------|
Gb|-------------------------------------------------------|
Db|-5555555555555555--------------------------------------|
Ab|-3333333333333333-5555555555555555-7777777777777777-3~-|
Eb|------------------3333333333333333-5555555555555555-1~-|
    **************** **************** ****************


Pre-Chorus 

eb|----------------------------------------------------|
Bb|----------------------------------------------------|
Gb|----------------------------------------------------|
Db|-55-5-55555-5-555-----------------------------------|
Ab|-33-3-33333-3-333-55-5-55555-5-555-77-7-77777-7-777-|
Eb|------------------33-3-33333-3-333-55-5-55555-5-555-|


eb|----------------------|
Bb|----------------------|
Gb|----------------------|
Db|-------5--------------|
Ab|-3/5\3-3--------------|
Eb|-1/3\1----------------|


-again-


eb|------------------------------------------------------------|
Bb|------------------------------------------------------------|
Gb|------------------------------------------------------------|
Db|-5555-5555-5555-5555----------------------------------------|
Ab|-3333-3333-3333-3333-5555-5555-5555-5555-7777-7777-7777-7777|
Eb|---------------------3333-3333-3333-3333-5555-5555-5555-5555|
     ***  ***  ***  ***  ***  ***  ***  ***  ***  ***  ***  ***

eb|----------------------|
Bb|----------------------|
Gb|----------------------|
Db|----------------------|
Ab|-3333-3333-3333-3333--|
Eb|-1111-1111-1111-1111--|
     ***  ***  ***  ***


Chorus(Zombies Everywhere)


eb|-----------------------------------------------------|
Bb|-----------------------------------------------------|
Gb|-----------------------------------------------------|
Db|-55-55~-555------------------------------------------|
Ab|-33-33~-333-55-555555--77-77~-777--33-3-33333-3-333--|
Eb|------------33-333333--55-55~-555--11-1-11111-1-111--|
                                      ** * ***** * ***

-Guitar Part-

eb|--------------------|2x on the second time dont do the -3~~-
Bb|--------------------|                  go straight to  -1~~-
Gb|--------------------|                  Second Part
Db|--5~~~--------------|
Ab|--3~~~-5/7---3~~~---|
Eb|-------3/5---1~~~---|
                          

eb|----------------------|
Bb|----------------------|
Gb|----------------------|
Db|------5--777777777777-|
Ab|-5/7\53--555555555555-|
Eb|-3/5\3----------------|

eb|--------------------------|
Bb|--------------------------|
Gb|--------------------------|
Db|--------------------------|
Ab|-33-33-33-3-33-333-33-333-|
Eb|-11-11-11-1-11-111-11-111-|
    *  *  ** * ** *** ** ***

-------------------------------------------Part Below 2x till u see <-- line again


eb|-------|2x
Bb|-------|
Gb|-------|
Db|-------|
Ab|-33-33-|
Eb|-11-11-|                                      ]
    *  *                                         ]
                                                 ]
eb|--------------------------|                   ]
Bb|--------------------------|                   ]
Gb|--------------------------|                   ]
Db|--------------------------|  --Only Do The -33-33- 3x The Second Time Then
Ab|-33-33-33-3-33-333-33-333-|                -11-11- Go To The Next Part
Eb|-11-11-11-1-11-111-11-111-|                 *  *
    *  *  ** * ** *** ** ***
---------------------------------------------------------------------


eb|----------------------|
Bb|----------------------|
Gb|----------------------|
Db|------5--777777777777-|
Ab|-5/7\53--555555555555-|
Eb|-3/5\3----------------|


(Zombies Everywere)

eb|-----------|
Bb|-----------|
Gb|-----------|
Db|-5~--------|
Ab|-3~-5~-7~--|
Eb|----3~-5~--|

(Silence Vocals)


Then-

eb|------------------------------------------------------------|
Bb|------------------------------------------------------------|
Gb|------------------------------------------------------------|
Db|-5555-5555-5555-5555----------------------------------------|
Ab|-3333-3333-3333-3333-5555-5555-5555-5555-7777-7777-7777-7777|
Eb|---------------------3333-3333-3333-3333-5555-5555-5555-5555|
     ***  ***  ***  ***  ***  ***  ***  ***  ***  ***  ***  ***

eb|----------------------|
Bb|----------------------|
Gb|----------------------|
Db|----------------------|
Ab|-3333-3333-3333-3333--|
Eb|-1111-1111-1111-1111--|
     ***  ***  ***  ***
(Zombies Everywhere)


eb|-------------------------------------------------------|
Bb|-------------------------------------------------------|
Gb|-------------------------------------------------------|
Db|-55-55~-555-----------------------------------------5~-|
Ab|-33-33~-333-55-555555--77-77~-777--33-3-33333-3-333-3~-|
Eb|------------33-333333--55-55~-555--11-1-11111-1-111----|
                                      ** * ***** * ***
--END--



There Was not a tab for this song so i kinda had to 
figure it out but now u guys know it haha leave a comment
 if some of it is wrong TY dont leave nasty comments and
 Say this is so fucking wrong kuz i know 90% of it sounds
 right to me .....TY! HAve A NICE DAY! =) ENJOY!
Tap to rate this tab
# A B C D E F G H I J K L M N O P Q R S T U V W X Y Z