Song name
# A B C D E F G H I J K L M N O P Q R S T U V W X Y Z

Karate - Outside Is The Drama tab

Help us improve GuitareTab! Take a short survey!
-------------------------------------------------------------------------------
			 Outside Is The Drama - Karate
-------------------------------------------------------------------------------
Tabbed by: David K
Email: thischarmingman13@gmail.com

Tuning: Standard

e|-------------------------------------------2---------------------------------|
B|-5-5-5--3--2~------------------------------2----------3----------------------|
G|-0-0-0--0--0~------------------------------3----------0----------------------|
D|-.-.-.--.--2~--2-2-2-2-2-2-2-2-2-2-------4--------4-5-5--5-------------------|
A|-5-5-5--5--0~--0-0-0-0-0-0-0-0-0-0-2/3/4-4---3/4/5---------------------------|
E|-----------------------------------------2-----------------------------------|
                 (Palm-mute)

e|----------------------------2-----------0----------------------------------|
B|----------------------------2-----------0----------------------------------|
G|----------------------------3---------4-4----4---4---4---4---4---4---4-----|
D|2-2-2-2-2-2-2-2-2-2-------4---------4---4---4-4-4-4-4-4-4-4-2-2-2-2-2-2----|
A|0-0-0-0-0-0-0-0-0-0-2-3-4-4---4-3-2-----2--2---2---2---2---3---3---3---3---|
E|--------------------------2------------------------------------------------|

e|------------------------------------------0--------0-----------------------|
B|--------------------------------------------0-----0---all.this.repeats-----|
G|---4---4---4---4------4-------4-------3-------3--3-------------------------|
D|--4-4-4-4-4-4-4-4---4---4---4---4---4---4-------4--------------------------|
A|-2---2---2---2----2-------2-------2----------------------------------------|
E|---------------------------------------------------------------------------|
                                                 (^Above - arpeggio)
e|---------------------------------------------------------------------------|
B|-repeats-------------------------------------------------------------------|
G|-7-6-4-----2-4-4-4-4-2-2-2--2-6-6-6-6-2-2-2--------------------------------|
D|---------------------------------------------------------------------------|
A|-----------0-2-2-2-2-0-0-0--0-4-4-4-4-0-0-0--------------------------------|
E|---------------------------------------------------------------------------|
This last bit is incomplete, it's right after the middle of the song.

| /  slide up
| \  slide down
| h  hammer-on
| p  pull-off
| ~  vibrato
| +  harmonic
| .  Mute note
===============================================================================
Related for Outside Is The Drama tab