Song name
# A B C D E F G H I J K L M N O P Q R S T U V W X Y Z

Karate - Die Die tab

#################################################
Song: Die Die
Artist: Karate
Album: In Place of Real Insight (1997)
Tab author: Mito Gegic, mito.gegic@gmail.com
Tuning: Standard
Note: On the track only one guitar is  audible
and You can pull the G2 harmony on one guitar
#################################################

Intro:
                                                      v --- G2 harmony --- v
 e-----------------------------------------------------------------------------|
 B----------------------------------------------------(6---5---5---4---4---3)--|
 G-------------------5---4---4---3---3---2-3-2---------5---4---4---3---3---2---|
 D------------3-0--0---0---0---0---0---0-2-3-2--3-0--0---0---0---0---0---0-----| x2
 A--------3-----------------------------(0-1-0)--------------------------------|
 E--0-3-5---5------------------------------------------------------------------|

Verse:

 e------------------------5-------8--------|
 B----------------------6-------6----------|
 G--------------------7-------7-------7\---|
 D------------3-0~(let ring)----------7\---| 2x
 A--------3---------------------------5\---|
 E--0-3-5---5------------------------------| 

 e-----------------------------------------|
 B-----------------------------------------|
 G------------10------8---8-~-\------------|
 D------------10--7---8---8-~-\------------|
 A--------3-0-8---7---6---6-~-\------------|
 E--0-3-5---------5------------------------|

Back to Intro 2x

Verse 1x

Solo:

 e-----------------------------------------------------------------------|
 B-----------------------------------------------------------------------|
 G----------------10-12B-12B~-10----10-------------10-----10-12B-10------|
 D----------10-------------------12----12-12-10-12----12------------12---|
 A----10-12----12--------------------------------------------------------|
 E-12--------------------------------------------------------------------|

 e---------------------------------------------------------------13------|
 B-----------------------------------------------------------------------|
 G----------------10-12B-12B~-10----10-------------10-----10-12B---r12---|
 D----------10-------------------12----12-12-10-12----12-----(hold n.)---|
 A----10-12----12--------------------------------------------------------|
 E-12--------------------------------------------------------------------|

 e-----------------------------------------|
 B-----------------------------------------|
 G------------10------8---8-~-\------------|
 D------------10--7---8---8-~-\------------|
 A--------3-0-8---7---6---6-~-\------------|
 E--0-3-5---------5------------------------|

BREAK
                v ---- x times/listen to record        v
 e---------------------------------------------------------|
 B---------------------------------------------------------|
 G---------------------------------------------------------|
 D------------3---------3(3-3-3)--2-2-2-2-3-2-0-0-0-0-0----|
 A--------3-----5-5-5-5-5-5-5-5-c-0-0-0-0-0-0-0-x-x-x-x----|
 E--0-3-5---5-----------------------------------3-3-3-3----|

 e-----------------------------------------|
 B-----------------------------------------|
 G-5-5-------------------13-13-12--12-12---|
 D-5-5--3-3--8-8-/-12-12-13-13-12--12-12---|
 A-3-3--3-3--8-8-/-12-12-11-11-10--10-10---|
 E------1-1--6-6-/-10-10-------------------|

 e-----------------------------------|
 B-(0)-------------------------------|
 G--10-------------13-13-12--12-12---|
 D--10-8-8-/-12-12-13-13-12--12-12---|
 A--8--8-8-/-12-12-11-11-10--10-10---|
 E-----6-6-/-10-10-------------------|

 e-----------------------------------|
 B-(0)-------------------------------|
 G--7--------------13-13-12--12-12---|
 D--7--8-8-/-12-12-13-13-12--12-12---|
 A--5--8-8-/-12-12-11-11-10--10-10---|
 E-----6-6-/-10-10-------------------|
 
 e-----------------------------------|
 B-(0)-------------------------------|
 G--10-------------13-13-12--12-12---|
 D--10-8-8-/-12-12-13-13-12--12-12---|
 A--8--8-8-/-12-12-11-11-10--10-10---|
 E-----6-6-/-10-10-------------------|

 e--------------|
 B--------------|
 G--12--12-12---|
 D--12--12-12---| x2
 A--10--10-10---|
 E--------------|

"Shut up! Shut up!"

OUTRO:

 e--5-0-----5-0-----5-0-----5-0--------------------|
 B--6---6-------6-------6-------6------------------|
 G--7-----7-------7-------7-------7----------------|
 D--7-------------------------------7--------------|
 A--5---------------------------------0------------|
 E-------------------------------------------------|

END

Tablature explanation:
######################
B            Full Bend
b            1/2  Bend
bb          1/4  Bend
~            Tremolo
r            Release
^(#)      Bend to (#)
/            Slide up
\            Slide down
h            Hammer-on
p            Pull-off
(#)        Ghost note
%            Rest
######################
Tap to rate this tab
# A B C D E F G H I J K L M N O P Q R S T U V W X Y Z