Song name
# A B C D E F G H I J K L M N O P Q R S T U V W X Y Z

Karate - Airport tab

INTRO/RIFF
-------------------------------------------|-----------------------------------|
-------------------------------------------|----------3------------------------|
--------------0------5------3------------3-|---3------3------------------------|
---------0-3---------5------3--------3h5---|---3------3------------------------|
-----0h3----------/7------5------3h5-------|-5---------------------------------|
-3-----------------------------------------|-------3---------------------------|
Play this riff 4x. The last time leave out <---Part 1--------------------------|
Part 1 and go directly to vers instead

VERSE
 D7#9 Ebmaj7 D7 Gm7 Dm7 Cm7 Dm7 Cm7  D7#9
------------------------------------------|-----------------------------------|
---6-----8---6---3-------4-------4---6-6--|-8---6---3-------4-------4--6-6--3-|
---5-----7---5---3---5---3---5---3---5-5--|-7---5---3---5---3---5---3--5-5--3-|
---4-----8---4---3---7---5---7---5---4-4--|-8---4---3---7---5---7---5--4-4--3-|
-5-----6-----5---x---5---3---5---3---5-5--|-6---5---x---5---3---5---3--5-5--x-|
-----------------3------------------------|---------3-----------------------3-|
           Today the grass...

CHORUS
 F   Cm7  Gm7 Fmaj7 D7#9
-1----------------------------------------------------------------------------|
-1----4----3---8-8---6--------------------------------------------------------|
-2----3----3---7-7---5--------------------------------------------------------|
-3----5----3---8-8---4--------------------------------------------------------|
-3----3----x---6-6---5--------------------------------------------------------|
-1---------3------------------------------------------------------------------|
   I see him out my window...

SOLO with wah wah
--------------------3h5--3----------------------------------------------------|
--3h5--3---5p3---3--3h5--3---5p3----3-----------------------------------------|
--3h5--3---5p3---3-----------5p3----3-----------------------------------------|
---------------5------------------5-------------------------------------------|
------------------------------------------------------------------------------|
------------------------------------------------------------------------------|
Tap to rate this tab
# A B C D E F G H I J K L M N O P Q R S T U V W X Y Z