Song name
# A B C D E F G H I J K L M N O P Q R S T U V W X Y Z

Karel Marquez - Pangarap tab

----------------------------------------------------------------
1st tab ko to..hope you'll like it..pkinggan nyo n lng ung kanta
pra mas mtimingan nyO..
----------------------------------------------------------------



intro:

e|--------2--3------------2----5---3-3-2--------------|
B|--3--5------------3--5------------------------------|
G|----------------------------------------------------|
B|----------------------------------------------------|
D|----------------------------------------------------|
A|----------------------------------------------------|
E|----------------------------------------------------|(2x)

verse I:
        D-G (2x)
        Em-A

verse II:
        D-G (2x)
        Em
pre-chorus:

e|----------------------------------------------------|
B|----------------------------------------------------|
G|----------------------------------------------------|
B|---55-----------------------------------------------|
D|---55---55------------------------------------------|
A|---33---55------------------------------------------|
E|--------33------------------------------------------|

chorus:

e|----------------------------------------------------|
B|----------------------------------------------------|
G|----------------------------------------------------|
B|-----7---------7------------------------------------|
D|-----7-----5-----7-----5-----2-----4-----5-----7----|
A|-----5-----5-----5-----5-----2-----4-----5-----5----|
E|-----------3-----------3-----0-----2-----3-----5----|

(intro)


e|--------2--3------------2----5---3-3-2--------------|
B|--3--5------------3--5------------------------------|
G|----------------------------------------------------|
B|----------------------------------------------------|
D|----------------------------------------------------|
A|----------------------------------------------------|
E|----------------------------------------------------|(2x)

verse I:
        D-G (2x)
        Em-A

verse II:
        D-G (2x)
        Em
pre-chorus:

e|----------------------------------------------------|
B|----------------------------------------------------|
G|----------------------------------------------------|
B|---55-----------------------------------------------|
D|---55---55------------------------------------------|
A|---33---55------------------------------------------|
E|--------33------------------------------------------|


chorus:

e|----------------------------------------------------|
B|----------------------------------------------------|
G|----------------------------------------------------|
B|-----7---------7------------------------------------|
D|-----7-----5-----7-----5-----2-----4-----5-----7----|
A|-----5-----5-----5-----5-----2-----4-----5-----5----|
E|-----------3-----------3-----0-----2-----3-----5----|

bridge:

e|----------------------------------------------------|
B|----------------------------------------------------|
G|-----9----------------------------------------------|
D|-----9------4------5------7-------------------------|
A|-----7------4------5------5-------------------------|
E|------------2------3------5-------------------------|(2x)

chorus:

e|----------------------------------------------------|
B|----------------------------------------------------|
G|----------------------------------------------------|
B|-----7---------7------------------------------------|
D|-----7-----5-----7-----5-----2-----4-----5-----7----|
A|-----5-----5-----5-----5-----2-----4-----5-----5----|
E|-----------3-----------3-----0-----2-----3-----5----|

chorus II:

e|----------------------------------------------------|
B|----------------------------------------------------|
G|----------------------------------------------------|
B|-----7-----------7----------------------------------|
D|-----7-----7-----7-----7-----5-----4-----2-----7----|
A|-----5-----7-----5-----7-----5-----4-----2-----7----|
E|-----------5-----------5-----3-----2-----0-----5----|

outtro:

e|--------2--3------------2----5---3-3-2--------------|
B|--3--5------------3--5------------------------------|
G|----------------------------------------------------|
B|----------------------------------------------------|
D|----------------------------------------------------|
A|----------------------------------------------------|
E|----------------------------------------------------|

e|--------2--3------------2---------------------------|
B|--3--5------------3--5------------------------------|
G|----------------------------------------------------|
B|---------------------------------55-----------------|
D|---------------------------------55---55------------|
A|---------------------------------33---55------------|
E|--------------------------------------33------------|

mdli lng nMn tO..enjoy!!

---------------------------------------------------------------------
hello nga pla sa mga bandm8 kO..ella,muviel,jonica & euanne..
tska sa mga klasmeyts kOng 3rd yr(archimedes) sa st clare science
high skul sa antipolo..

pki-rate pO ung gawa kO..salamat pO!!!
---------------------------------------------------------------------

Tap to rate this tab
# A B C D E F G H I J K L M N O P Q R S T U V W X Y Z