Song name
# A B C D E F G H I J K L M N O P Q R S T U V W X Y Z

Karen Zoid - Meisie Wat Haar Potlood Kou tab

This will be my first tab, and the closest I've come!

Enjoy

---------------------------------------------|
-------1---0---1---1-------1---0---1---1-----|
-------0---0---0---0-------0---0---0---0-----|
---------------------------------------------|
---3-3---3---3----------0-0---0---0----------|
---------------------------------------------|

---------------------------------------------|
-------1---0---1---1-------1---0---1---1h3---|
-------0---0---0---0-------0---0---0---0-----|
---------------------------------------------|
---------------------------------------------|
---3-3---3---3---------1-1---1---1-----------|

          C           Am           G                      F
As jou pad dalk sou kruis, met die meisie wat haar potlood kou
           C                    Am
Dan's daar een ding wat jy moet weet
            G                      F
Dans's daar een ding wat jy moet onthou

Sy ken jou dalk... alreeds
Tap to rate this tab
# A B C D E F G H I J K L M N O P Q R S T U V W X Y Z