Song name
# A B C D E F G H I J K L M N O P Q R S T U V W X Y Z

Karen Zoid - Meisie Wat Haar Potlood Kou tab

Hey everyone
This is my first tab so I welcome corections,hate mail or whatever. It's a pretty easy 
so enjoy!

s=Slide

--------------------------------------------|
------1-------0-----1------1------1---------|
--------------------------------------------|
--------------------------------------------|
-----3--3-------3-------3-----3------3------|
--------------------------------------------|

--------------------------------------------|
-------1-------0-------1-----1------1-------|
--------------------------------------------|
--------------------------------------------|
--0--0-----0--------0-----0-----0-----------|
--------------------------------------------|

--------------------------------------------|
-------1-------0-------1-------1-------1----|
--------------------------------------------|
--------------------------------------------|
--3--3----3------3------3-------3-----------|
--------------------------------------------|

---------------------------------------------|
--------1------0------1------1----1s3--------|
---------------------------------------------|
--3---3------3------3------3-----------------|
---------------------------------------------|
---------------------------------------------|
Tap to rate this tab
# A B C D E F G H I J K L M N O P Q R S T U V W X Y Z