Song name
# A B C D E F G H I J K L M N O P Q R S T U V W X Y Z

Karima Francis - Wherever I Go tab

-------------------------------------------------------------------------------
                             Wherever I Go - Karima Francis
-------------------------------------------------------------------------------
Tabbed by: James Bissell
E-mail: -

Tuning: Standard E A D G B E

e|---0-----0--0---------------------------------------------------------------|
B|---0(8)--5--3(0)------------------------------------------------------------|
G|---7-----6--4---------------------------------------------------------------|
D|---9-----7--5---------------------------------------------------------------|
A|---9-----7--5---------------------------------------------------------------|
E|---X-----X--X---------------------------------------------------------------|

Very simple. just listen to the song to get the strumming pattern.

enjoy, James
Tap to rate this tab
# A B C D E F G H I J K L M N O P Q R S T U V W X Y Z