Song name
# A B C D E F G H I J K L M N O P Q R S T U V W X Y Z

Karina Pasian - Slow Motion tab

Email me at: Jbrother1995@yahoo.com

Artist:Karina Pasian
Song:Slow Motion
capo:3rd Fret
S:Slap Down

e|-----------------|------------------|
B|-----------------|------3s-3s-------|
G|------2s-2s------|------2s-2s-2-----|4x 
D|------2s----2----|----3-------3--3s-|
A|----3----3s-3-3s-|--1------1s-------|
E|--1------1s------|------------------|

e|----------------|-----------------|--------------|----------------|
B|----------------|-----------------|------6s------|----------------|
G|------3-3s------|-----3-3s--------|------5s-5----|------5-5s------|
D|------3-3s-3----|-----5-5s--5-----|----7----7-7s-|------5-5s-5----|
A|-----------3-3s-|-----------3--3s-|--5---5s------|-----------5-5s-|
E|--3---3-3s------|--3--3-3s--------|--------------|--5---5-5s------|

e|----------------|-----------------|--------------|----------------|
B|----------------|-----------------|------6s------|----------------|
G|------3-3s------|-----5-5s--------|------5s-5----|------5-5s------|
D|------3-3s-3----|-----5-5s--5-----|----7----7-7s-|------5-5s-5----|
A|-----------3-3s-|-----------5--3s-|--5---5s------|-----------5-5s-|
E|--3---3-3s------|--5--5-5s--------|--------------|--5---5-5s------|

e|----------------|-0-|\
B|----------------|-3-| \
G|------3-3s------|-3-|  \strum down
D|------3-3s-3----|-2-|  /
A|-----------3-3s-|-3-| /
E|--3---3-3s------|-0-|/

e|-----------------|------------------|
B|-----------------|------3s-3s-------|
G|------2s-2s------|------2s-2s-2-----|
D|------2s----2----|----3-------3--3s-|4x
A|----3----3s-3-3s-|--1------1s-------|
E|--1------1s------|------------------|

e|----------------|-----------------|--------------|----------------|
B|----------------|-----------------|------6s------|----------------|
G|------3-3s------|-----3-3s--------|------5s-5----|------5-5s------|
D|------3-3s-3----|-----5-5s--5-----|----7----7-7s-|------5-5s-5----|
A|-----------3-3s-|-----------3--3s-|--5---5s------|-----------5-5s-|
E|--3---3-3s------|--3--3-3s--------|--------------|--5---5-5s------|

e|----------------|-----------------|--------------|----------------|
B|----------------|-----------------|------6s------|----------------|
G|------3-3s------|-----5-5s--------|------5s-5----|------5-5s------|
D|------3-3s-3----|-----5-5s--5-----|----7----7-7s-|------5-5s-5----|
A|-----------3-3s-|-----------5--3s-|--5---5s------|-----------5-5s-|
E|--3---3-3s------|--5--5-5s--------|--------------|--5---5-5s------|

e|----------------|-0-|\
B|----------------|-3-| \
G|------3-3s------|-3-|  \strum down
D|------3-3s-3----|-0-|  /
A|-----------3-3s-|-3-| /
E|--3---3-3s------|-0-|/

e|-----------------|------------------|
B|-----------------|------3s-3s-------|
G|------2s-2s------|------2s-2s-2-----|
D|------2s----2----|----3-------3--3s-|3x
A|----3----3s-3-3s-|--1------1s-------|
E|--1------1s------|------------------|

e|-----------------|-1-|\
B|-----------------|-1-| \
G|------2s-2s------|-2-|  \Strum Down
D|------2s----2----|-2-|  /
A|----3----3s-3-3s-|-3-| /
E|--1------1s------|-1-|/

Tap to rate this tab
 
# A B C D E F G H I J K L M N O P Q R S T U V W X Y Z