Karkwa - Le Bon Sens tab

-------------------------------------------------------------------------------
			     LE BON SENS - Karkwa
-------------------------------------------------------------------------------
Tabbed by: Marc-André Hurtubise
Email:

Tuning: EADGBE (capo 1re frette)

INTRO (4x)
e|-------3p0----------0--|
B|-------3------0p3---3--|
G|--------------0--------|
D|-------2---------2-----|
A|-----------------------|
E|--0---------0----------|




e|-------3p0----------0--|-------3p0----------0--|
B|-------3------0p3---3--|-------3------0p3---3--|
G|--------------0--------|--------------0--------|
D|-------2---------2-----|-------2---------2-----|
A|-----------------------|-----------------------|
E|--0---------0----------|--0---------0----------|
         Un tollé à la chambre de commerce
         Et les combats des calendriers

e|-------3p0----------0--|-------3p0----------0--|
B|-------3------0p3---3--|-------3------0p3---3--|
G|--------------0--------|--------------0--------|
D|-------2---------2-----|-------2---------2-----|
A|-----------------------|-----------------------|
E|--0---------0----------|--0---------0----------|
         Une pilule pour traverser l'averse Le cafare...
         Les éclats de larmes sur le plancher... Burn-out sur le...

e|-------3p0----------0--|-------3p0----------0--|
B|-------3------0p3---3--|-------3------0p3---3--|
G|--------------0--------|--------------0--------|
D|-------2---------2-----|-------2---------2-----|
A|-----------------------|-----------------------|
E|--0---------0----------|--0---------0----------|
    à la porte Et plusieurs milliards dans la compote
    toit... Guettant comme un oiseau de proie


e|-------3p0----------0--|-------3p0----------0--|
B|-------3------0p3---3--|-------3------0p3---3--|
G|--------------0--------|--------------0--------|
D|-------2---------2-----|-------2---------2-----|
A|-----------------------|-----------------------|
E|--0---------0----------|--0---------0----------|
       King fraudeur en smoking s'enfuit dans le smog vert de gris.
         Et le petit "psy" qui suit comme un chien de poche... J'ai peur...
  
e|-------3p0----------0--|-------3p0----------0--|
B|-------3------0p3---3--|-------3------0p3---3--|
G|--------------0--------|--------------0--------|
D|-------2---------2-----|-------2---------2-----|
A|--3---------3----------|-----------------------|
E|-----------------------|--3---------3----------|
         D'ici c'est difficile de voir le paradis
         que lentement le tonnerre se rapproche

e|-------3p0----------0--|-------3p0----------0--|
B|-------3------0p3---3--|-------3------0p3---3--|
G|--------------0--------|--------------0--------|
D|-------2---------2-----|-------2---------2-----|
A|--0---------0----------|--0---------0----------|
E|-----------------------|-----------------------|



e|-------3p0----------0--|-------3p0----------0--|
B|-------3------0p3---3--|-------3------0p3---3--|
G|--------------0--------|--------------0--------|
D|-------2---------2-----|-------2----0----2-----|
A|--0---------0----------|-----------------------|
E|-----------------------|--3--------------------|
           la face pluggée dans l'exhaust de la Ferrari.
	   Que lentement le "liquid-paper" efface mon nom

e|-------3p0----------0--|-------3p0----------0--|
B|-------3------0p3---3--|-------3------0p3---3--|
G|--------------0--------|--------------0--------|
D|-------2---------2-----|-------2---------2-----|
A|-----------------------|-----------------------|
E|--0---------0----------|--0---------0----------|



e|-------3p0----------0--|-------3p0----------0--|
B|-------3------0p3---3--|-------3------0p3---3--|
G|--------------0--------|--------------0--------|
D|-------2---------2-----|--0----2----0-----2----|
A|------------0----------|-----------------------|
E|--3--------------------|-----------------------| (3x)
         Mais on fait la file comme des cons,
         Lavés comme des esclaves de la dépense. Je veux 
         marcher à reculons pour avancer dans le bon sens.


Etc.


PAROLES :

Un tollé à la chambre de commerce
Une pilule pour traverser l'averse
Le cafard à la porte
Et plusieurs milliards dans la compote
King fraudeur en smoking s'enfuit dans le smog vert de gris
d'ici c'est difficile de voir le paradis
la face pluggée dans l'exhaust de la Ferrari.
 
Et les combats des calendriers
Les éclats de larmes sur le plancher
Burn-out sur le toit
Guettant comme un oiseau de proie
Et le petit "psy" qui suit comme un chien de poche
J'ai peur que lentement le tonnerre se rapproche
Que lentement le "liquid-paper" efface mon nom
 
Mais on fait la file comme des cons,
Lavés comme des esclaves de la dépense
Je veux marcher à reculons pour avancer dans le bon sens.
 
Panique au bulletin de nouvelles
Politique génération pastel
3000 soldats en guerre
une autre médaille sous la terre,
une autre question qui m'éclate la cervelle, pourquoi
autant de kamikazes dans la vie
pour aussi peu de poussière sur les cravates fleuries?
 
Et on fait la file comme des cons
Lavés comme des esclaves de la dépense
Je veux marcher à reculons pour avancer dans le bon sens.


************************************

| /   slide up
| \   slide down
| h   hammer-on
| p   pull-off
| ~   vibrato
| +   harmonic
| x   Mute note
| b   Bend
| pb  Pre-bend
| br  Bend release
| pbr Pre-bend release
| brb Bend release bend

************************************
Tap to rate this tab
 
# A B C D E F G H I J K L M N O P Q R S T U V W X Y Z