Song name
# A B C D E F G H I J K L M N O P Q R S T U V W X Y Z

Karl Wolf - Carrera tab

Karl Wolf – Carrera remix

Capo 4 – [E] [F#m] [G#m9]

intro, verse 1 and 2

carrera… carrera… carrera… carrera…

E-------------------------------------------------------------------------------------------|
B-----------0-------------------0----------------------------0------------------------0-----|
G-----------1---3---------------3---3-----------------------3---3-------------------3----3--|
D-------2------------------4-----------------------------4------------------------4---------|
A-----------------------------------------------------2------------------------2------------|
E----0------------------2------------------------4-------------------------4----------------|


bridge – [A] [B] [C#m]

your baby’s home she’s all alone
you’re makin’ this a cloudy day…

E-------------------------2-------------------x--------|
B------------0------------2---------------5----x---4h5-|
G------------2------------4---------------6----x-------|
D-------2------------4--------------6----------x-------|
A----0------------2--------------4-------------x-------|
E------------------------------------------------------|


I use the picking and tapping technique for this song
So when you play the song, just listen closely to the beat of the song goes
Tap to rate this tab
 
# A B C D E F G H I J K L M N O P Q R S T U V W X Y Z