Song name
# A B C D E F G H I J K L M N O P Q R S T U V W X Y Z

Karmaghost - Dont tab

song:  Don't
artist:  Karmaghost
tabbed by: Colin Cassady, the guitarist of karmaghost

Song specifications: you need to put the song in drop-d(DADGBE). Pedals- ibanez classic metal soundtank 
and a wah-pedal.


intro (Play with a d chord)

E-2-5-------------------------------|
B-3-6-------------------------------|
G-2-5-------------------------------|
D-----------------------------------|
A-----------------------------------|
D-----------------------------------|


chorus (mute the bottom 3 strings and bar the top 3 on the same fret)

E------------------------------------|
B------------------------------------|
G------------------------------------|
D-3-6-0-0-0-0-6-3-0-0-0-0------------|
A-3-6-0-0-0-0-6-3-0-0-0-0------------|
D-3-6-0-0-0-0-6-3-0-0-0-0------------|

verses

E---------------------------------------------------|
B---------------------------------------------------|
G---------------------------------------------------|
D---------------------------------------------------|
A---------------------------------------------------|
D-2-3-2-3-2-3-3-3-3-0-------------------------------|


NOTES:
 The intro is the only part not with heavy distortion, but with semi heavy distortion. Other wise, always 
on heavy distortion.
Tap to rate this tab
# A B C D E F G H I J K L M N O P Q R S T U V W X Y Z