Song name
# A B C D E F G H I J K L M N O P Q R S T U V W X Y Z

Karmin - Hello tab

  first chorus and verse loop (can loop for whole song if you want basic acoustic style)

NO CAPO


e|----------------|----------------|----------------|-------------------|
b|----6-----------|-----10---------|----5-----------|----11-------------|
g|-------7--------|---------10-----|-------5--------|--------12---------|
D|-0------------0-|-0------------0-|-0------------0-|-0------------0----|
A|----------------|----------------|----------------|-------------------|
E|----------------|----------------|----------------|-------------------|


e|----------------|-----------------------|  repeat.
b|---3-----3------|---11-----11-----------|
g|-----3-----3----|------12-----12--------|
D|-0-----0-----0-0|-0------0--------0-0---|
A|----------------|-----------------------|
E|----------------|-----------------------|
Tap to rate this tab
# A B C D E F G H I J K L M N O P Q R S T U V W X Y Z