Song name
# A B C D E F G H I J K L M N O P Q R S T U V W X Y Z

Karmin - Acapella Acoustic tab

Intro

e|------------------------------------------------------------------|
B|------------------------------------------------------------------|
G|------------------------------------------------------------------|
D|------------------------------------------------------------------|
A|------3-3-3-------------------------------------------------------|
E|5-5-5-------3-3-3-5~----------------------------------------------|


e|---------------------------------------------------------------|
B|---------------------------------------------------------------|
G|---------------------------------------------------------------|   x4
D|---------------------------------------------------------------|
A|------3-3-3------------------------3-3-3-----------------------|
E|5-5-5-------3-3-3-5-5-5-5-5-5-------------3-3-3-5-5-5----------|

Am(5th fret)   B(7th fret)
Tap to rate this tab
 
# A B C D E F G H I J K L M N O P Q R S T U V W X Y Z