Song name
# A B C D E F G H I J K L M N O P Q R S T U V W X Y Z

Karmin - Acapella tab

(/) Slide Up  (\) Slide Down  (h) Hammer On  (p) Pull Off  (b) Bend (r) Release (v) Vibrato

This song is an old one apparently but here is my rendition anyway.

Capo on 2nd Fret! (I prefer the slightly higher sound)


Intro repeats throughout whole song.
E|---------------------------11-12----|
B|---------------------------11/12----|
G|------------------------------------|
D|-7-7--5-----------------------------|
A|--------7-7--3-5-5------------------|
E|--------------------3-5-5-----------|


Chorus:

E|-12-12-12-12-12-10----7-7-7-7-7-5----0-0-0-0-0---2-5-|
B|-----------------------------------------------3-----|
G|-----------------------------------------------------|
D|-----------------------------------------------------|
A|-----------------------------------------------------|
E|-----------------------------------------------------|


E|-12-12-12-12-12-10----7-7-7-7-7-5----0-0-0-0-0-------|
B|-----------------------------------------------3-0-0-|
G|-----------------------------------------------------|
D|-----------------------------------------------------|
A|-----------------------------------------------------|
E|-----------------------------------------------------|



E|-12-12-12-12-12/13-10----7-7-7-7-7/8-5----0-0-0-0-0---2-5-|
B|----------------------------------------------------3-----|
G|----------------------------------------------------------|
D|----------------------------------------------------------|
A|----------------------------------------------------------|
E|----------------------------------------------------------|

E|-12-12-12-12-12/13-10----7-7-7-7-7/8-5----0-0-0-0-0-------|
B|----------------------------------------------------3-0-0-|
G|----------------------------------------------------------|
D|----------------------------------------------------------|
A|----------------------------------------------------------|
E|----------------------------------------------------------|


E|---------------------------11-12----|
B|---------------------------11/12----|
G|------------------------------------|
D|-7-7--5-----------------------------|
A|--------7-7--3-5-5------------------|
E|--------------------3-5-5-----------|

                                                        http://www.guitartabcreator.com
Tap to rate this tab
 
# A B C D E F G H I J K L M N O P Q R S T U V W X Y Z