Song name
# A B C D E F G H I J K L M N O P Q R S T U V W X Y Z

Karnage - Bridge To Nowhere tab

intro play 4 times
e|----12-15p12-12-------------|
b|-12----------12-------------|
G|----------------------------|
D|----------------------------|
A|----------------------------|
D|----------------------------|

bridge/chorus
e|--------------------------------|
b|--------------------------------|
G|--------------------------------|
D|-7-7H8-8--8-8/3-3--3-3H5-5--0---|
A|-7-7H8-8--8-8/3-3--3-3H5-5--0---|
D|-7-7H8-8--8-8/3-3--3-3H5-5--0---|

versus
e|----------------------------|
b|----------------------------|
G|----------------------------|
D|00-00-00-00-3-5-------------|
A|00-00-00-00-3-5-------------|
D|00-00-00-00-3-5-------------|
pm.. .. .. ..

chours
e|-------------------------------|
b|-------------------------------|
G|-------------------------------|
D|-7-7H8-8--8-8/3-3--3-3H5-5--0--|
A|-7-7H8-8--8-8/3-3--3-3H5-5--0--|
D|-7-7H8-8--8-8/3-3--3-3H5-5--0--|

versus
e|----------------------------|
b|----------------------------|
G|----------------------------|
D|00-00-00-00-3-5-------------|
A|00-00-00-00-3-5-------------|
D|00-00-00-00-3-5-------------|
pm.. .. .. ..

chours
e|--------------------------------|
b|--------------------------------|
G|--------------------------------|
D|-7-7H8-8--8-8/3-3--3-3H5-5--0---|
A|-7-7H8-8--8-8/3-3--3-3H5-5--0---|
D|-7-7H8-8--8-8/3-3--3-3H5-5--0---|


rythem during solo
e|--------------------------------|
b|--------------------------------|
G|--------------------------------|
D|-7-7H8-8--8-8/3-3--3-3H5-5--0---|
A|-7-7H8-8--8-8/3-3--3-3H5-5--0---|
D|-7-7H8-8--8-8/3-3--3-3H5-5--0---|

solo
e|--12-15-17-17-15-12-15-12---------12-15-----------------------------|
b|12-----------------------15-12-15-------15---12-15-12---------------|
G|------------------------------------------------------15-12---------|
D|--------------------------------------------------------------15-12-|
A|--------------------------------------------------------------------|
D|--------------------------------------------------------------------|

                                                                    end solo
e|---------------------------------------------------------------------------|
b|---------------------------------------------------------------------------|
G|------------12---------------12-------------12--------12--------12-----14B
D|12-15-12-15----15--15--12--15---15--15-12-15--15-12-15--15-12-15--15-12----|
A|---------------------------------------------------------------------------|
D|-------------------------------------------------------------------------


chours
e|--------------------------------|
b|--------------------------------|
G|--------------------------------|
D|-7-7H8-8--8-8/3-3--3-3H5-5--0---|
A|-7-7H8-8--8-8/3-3--3-3H5-5--0---|
D|-7-7H8-8--8-8/3-3--3-3H5-5--0---|

outro
e|--------------------------------------|
b|--------------------------------------|
G|--------------------------------------|
D|0-0-0-0-3--3-3H5-5--0--3--3-3H5-5-----|
A|0-0-0-0-3--3-3H5-5--0--3--3-3H5-5-----|
D|0-0-0-0-3--3-3H5-5--0--3--3-3H5-5-----|
pm. . . .             .
Tap to rate this tab
 
# A B C D E F G H I J K L M N O P Q R S T U V W X Y Z