Song name
# A B C D E F G H I J K L M N O P Q R S T U V W X Y Z

Karnage - Head Trauma tab

By: Knuckles
                          This is my first tab
M = palm mute
/ = Slide
B = bend or whammy

e|----------------------------------------------------------------------------|
B|----------------------------------------------------------------------------|
G|----------------------------------------------------------------------------|
D|----------------------------------------------------------------------------|
A|---1m-1m--1/3--1m-1---------------------------------------------------------| x4
E|---1m-1m--1/3--1m-1---------------------------------------------------------| x4

e|---------------------------------------------------------------------------|
B|---------------------------------------------------------------------------|
G|---------------------------------------------------------------------------|
D|---------------------------------------------------------------------------|
A|---0-0--1/3--0-1b----------------------------------------------------------| x4
E|---0-0--1/3--0-1b----------------------------------------------------------| x4

e|---------------------------------------------------------------------------|
B|---------------------------------------------------------------------------|
G|---------------------------------------------------------------------------|
D|---------------------------------------------------------------------------|
A|---4-4-4-4-4-4-4-4---2-2-2-2-2-2-2-2---------------------------------------|
E|---2-2-2-2-2-2-2-2---1-1-1-1-1-1-1-1---------------------------------------|

Then repeat once half way through.. listen to the song you will know excactly what I
mean great song! Easy to learn great riff
Tap to rate this tab
 
# A B C D E F G H I J K L M N O P Q R S T U V W X Y Z