Guitaretab - guitar tabs
Song name
# A B C D E F G H I J K L M N O P Q R S T U V W X Y Z

Karnivool - Simple Boy tab

----------------------------------------------------------
  	         Simple Boy - Karnivool
----------------------------------------------------------
Tabbed by: Kristyn Lee
Email: spot_the_village_loony_836@hotmail.com

Tuning: B F# B G B e


0:27          "i'm high... above the world..."
e |------5~-----------------------/9---------------------|
B |----3-----------------------------10------------------|
G |--4----------------------------------11~--------------|
B |------------------------------------------------------|
F#|------------------------------------------------------|
B |------------------------------------------------------|

              "why should i feel pain..."
e |-------0~---------------------------------------------|
B |-----3------------------------------------------------|
G |---4--------------------------------------------------|
B |------------------------------------------------------|
F#|------------------------------------------------------|
B |------------------------------------------------------|

          "or feel at all..."
e |------------------------------------------------------|
B |-------7~---------------------------------------------|
G |-----4------------------------------------------------|
B |---0--------------------------------------------------|
F#|------------------------------------------------------|
B |------------------------------------------------------|
[ Tab from: http://www.guitaretab.com/k/karnivool/188433.html ]
     "to be protected like...a simple boy..."
e |--------5~------------------------/9------------------|
B |------3------------------------------10---------------|
G |----4-----------------------------------11~-----------|
B |------------------------------------------------------|
F#|------------------------------------------------------|
B |------------------------------------------------------|

     "choose to let you down..."
e |-------0~---------------------------------------------|
B |-----3------------------------------------------------|
G |---4--------------------------------------------------|
B |------------------------------------------------------|
F#|------------------------------------------------------|
B |------------------------------------------------------|
        "begin to know..."
e |------------------------------------------------------|
B |-------7~---------------------------------------------|
G |-----4------------------------------------------------|
B |---0--------------------------------------------------|
F#|------------------------------------------------------|
B |------------------------------------------------------|

     "you're free to go..."
e |------------------------------------------------------|
B |------------------------------------------------------|
G |-----------6------------------------------------------|
B |--12--8\7----7/8---10-5-7-----------------------------|
F#|------------------------------------------------------|
B |------------------------------------------------------|

I will finish this soon, don't worry I just don't have time 
right now.

| /  slide up
| \  slide down
| h  hammer-on
| p  pull-off
| ~  vibrato
| +  harmonic
| x  Mute note
============================================================
Related for Simple Boy tab
Simple Boy chords by Karnivool