Song name
# A B C D E F G H I J K L M N O P Q R S T U V W X Y Z

Karnivool - Deadman tab

                                              Deadman                                               


                                                                                          Karnivool
Guitar 1 Drew (God)dard
-(More detailed Guitar Pro tab w/both guitars and some bass also up)
-*****Guitar II parts surrounded by ******


                          Transposed frm Open D w/ capo 5th to reg Karn. tun                      
      W                   W                                                     W                 
E ||-------------------|-----------------------------------------------------|-------------------|
B ||-------------------|-----------------------------------------------------|-------------------|
G ||-------------------|-----------------------------------------------------|-------------------|
B ||-------------------|-----------------------------------------------------|-------------------|
F#||-------------------|-----------------------------------------------------|-------------------|
B ||-------------------|-----------------------------------------------------|-------------------|


  W                   W                   W                   W                   W                 
-------------------|--6----------------|-------------------|-------------------|-------------------|
-------------------|--8----------------|-------------------|-------------------|-------------------|
-------------------|-------------------|-------------------|-------------------|-------------------|
-------------------|-------------------|-------------------|-------------------|-------------------|
-------------------|-------------------|-------------------|-------------------|-------------------|
-------------------|-------------------|-------------------|-------------------|-------------------|


  PM PM PM PM PM PM PM PM PM PM PM PM    PM PM PM PM PM PM PM PM PM PM PM PM  
  |--3--|  |--3--|  |--3--|  |--3--|     |--3--|  |--3--|  |--3--|  |--3--|   
  E  E  E  E  E  E  E  E  E  E  E  E     E  E  E  E  E  E  E  E  E  E  E  E   
--------------------------------------|--------------------------------------|
-----------6--------6-----6--------6--|-----------5--------5-----5--------5--|
--0--3--5-----3--5-----5-----3--0-----|--0--3--5-----3--5-----5-----3--0-----|
--------------------------------------|--------------------------------------|
--------------------------------------|--------------------------------------|
--------------------------------------|--------------------------------------|


  PM PM PM PM PM PM PM PM PM PM PM PM    PM PM PM PM PM PM PM                     
  |--3--|  |--3--|  |--3--|  |--3--|     |--3--|  |--3--|  |---3--|   |---3---|   
  E  E  E  E  E  E  E  E  E  E  E  E     E  E  E  E  E  E  E  E   E   E   E   E   
--------------------------------------|------------------------------------------|
-----------4--------4-----4--------4--|-----------3--------3---------------------|
--0--3--5-----3--5-----5-----3--0-----|--0--3--5-----3--5-----0h--2h--3h--5p--2--|
--------------------------------------|------------------------------------------|
--------------------------------------|------------------------------------------|
--------------------------------------|------------------------------------------|


  PM PM PM PM PM PM PM PM PM PM PM PM    PM PM PM PM PM PM PM PM PM PM PM PM  
  |--3--|  |--3--|  |--3--|  |--3--|     |--3--|  |--3--|  |--3--|  |--3--|   
  E  E  E  E  E  E  E  E  E  E  E  E     E  E  E  E  E  E  E  E  E  E  E  E   
--------------------------------------|--------------------------------------|
-----------6--------6-----6--------6--|-----------5--------5-----5--------5--|
--0--3--5-----3--5-----5-----3--0-----|--0--3--5-----3--5-----5-----3--0-----|
--------------------------------------|--------------------------------------|
--------------------------------------|--------------------------------------|
--------------------------------------|--------------------------------------|


  PM PM PM PM PM PM PM PM PM PM PM PM    PM PM PM PM PM PM PM                     
  |--3--|  |--3--|  |--3--|  |--3--|     |--3--|  |--3--|  |---3--|   |---3---|   
  E  E  E  E  E  E  E  E  E  E  E  E     E  E  E  E  E  E  E  E   E   E   E   E   
--------------------------------------|------------------------------------------|
-----------4--------4-----4--------4--|-----------3--------3---------------------|
--0--3--5-----3--5-----5-----0--3-----|--0--3--5-----3--5-----0h--2h--3h--5p--2--|
--------------------------------------|------------------------------------------|
--------------------------------------|------------------------------------------|
--------------------------------------|------------------------------------------|


    PM PM PM PM PM PM PM PM PM PM PM PM    PM PM PM PM PM PM PM PM PM PM PM PM  
    |--3--|  |--3--|  |--3--|  |--3--|     |--3--|  |--3--|  |--3--|  |--3--|   
    E  E  E  E  E  E  E  E  E  E  E  E     E  E  E  E  E  E  E  E  E  E  E  E   
|---------------------------------------|--------------------------------------|
|------------6--------6-----6--------6--|-----------5--------5-----5--------5--|
|*--0--3--5-----3--5-----5-----0--3-----|--0--3--5-----3--5-----5-----3--0-----|
|*--------------------------------------|--------------------------------------|
|---------------------------------------|--------------------------------------|
|---------------------------------------|--------------------------------------|


  PM PM PM PM PM PM PM PM PM PM PM PM    PM PM PM PM PM PM PM                       
  |--3--|  |--3--|  |--3--|  |--3--|     |--3--|  |--3--|  |---3--|   |---3---|     
  E  E  E  E  E  E  E  E  E  E  E  E     E  E  E  E  E  E  E  E   E   E   E   E   4x
--------------------------------------|-------------------------------------------||
-----------4--------4-----4--------4--|-----------3--------3----------------------||
--0--3--5-----3--5-----5-----3--0-----|--0--3--5-----3--5-----0h--2h--3h--5p--2--*||
--------------------------------------|------------------------------------------*||
--------------------------------------|-------------------------------------------||
--------------------------------------|-------------------------------------------||


               T           T       T           T                T          T      T          T   
   |---3---|   |---3---|   |---3---|   |---3---|     |---3---|  |---3---|  |---3--|   |---3--|   
   E   E   E   E   E   E   E   E   E   E   E   E     E   E   E  E   E   E  E   E  E   E   E  E   
--------------------------------------------------|---------------------------------------------|
--------------------------------------------------|---------------------------------------------|
*--0h--3h--5--10p--3h--5--10p--5--10p--3p--0--10--|--0h--3h--5--9p--3h--5--9p--5--9p--3p--0--9--|
*-------------------------------------------------|---------------------------------------------|
--------------------------------------------------|---------------------------------------------|
--------------------------------------------------|---------------------------------------------|


             T          T      T          T                T          T             T         
  |---3---|  |---3---|  |---3--|   |---3--|     |---3---|  |---3---|  |---3--|   |---3--|     
  E   E   E  E   E   E  E   E  E   E   E  E     E   E   E  E   E   E  E  E   E   E  E   E   4x
---------------------------------------------|----------------------------------------------||
---------------------------------------------|----------------------------------------------||
--0h--3h--5--8p--3h--5--8p--5--8p--3p--0--8--|--0h--3h--5--7p--3h--5--7--0h--2h--3--5p--2--*||
---------------------------------------------|---------------------------------------------*||
---------------------------------------------|----------------------------------------------||
---------------------------------------------|----------------------------------------------||



Guitar I
   H        H         7x  H         H             W                   H         H           
----------------------||---------------------||--------------------|----------------------||
----------------------||---------------------||--------------------|----------------------||
*--------------------*||-----------10--------||*-------------------|-----------10--------*||
*--------------------*||-----------10--------||*--8----------------|--L--------10--------*||
----------------------||---------------------||---8----------------|--L-------------------||
----------------------||---------------------||---8----------------|--L-------------------||


*****Guitar II
   H        H        7x  H        H             E    E   E   E   E   E  E    E   E   E   E   E   
|---------------------||--------------------||---------------------------------------------------|
|---------------------||--------------------||---------------------------------------------------|
|*-------------------*||--------------------||*--------------------------------------------------|
|*-------------------*||--------------------||*--------------10p--8------------------10p--8------|
|---------------------||--------------------||---8h--11p--8----------11--8h--11p--8----------11--|
|---------------------||--------------------||---------------------------------------------------|


  |----3---|   |---3---|  |----3---|   |----3---|     
  E    E   E   E   E   E  E    E   E   E    E   E     
----------------------------------------------------||
----------------------------------------------------||
---------------------------------------------------*||
--------------10p--8------------------11p--10p--8--*||
--8h--11p--8----------11--8h--11p--8----------------||
----------------------------------------------------||


  |----3---|   |---3---|  |----3---|   |---3---|   
  E    E   E   E   E   E  E    E   E   E   E   E   
--------------------------------------------------|
--------------------------------------------------|
--------------------------------------------------|
--------------10p--8------------------10p--8------|       
--8h--11p--8----------11--8h--11p--8----------11--|
--------------------------------------------------|


  |----3---|   |---3---|  |----3---|   |----3---|   
  E    E   E   E   E   E  E    E   E   E    E   E   
---------------------------------------------------|*********    <----Repeat
---------------------------------------------------|
---------------------------------------------------|
--------------10p--8------------------11p--10p--8--|
--8h--11p--8----------11--8h--11p--8---------------|
---------------------------------------------------|



Guitar I
  W                   H         H           W                   H         H         
-------------------|---------------------|-------------------|---------------------|
--5----------------|--L------------------|-------------------|---------------------|
--5----------------|--L------------------|-------------------|-----------10--------|
--5----------------|--L------------------|--8----------------|--L--------10--------|
-------------------|-----------11--------|--8----------------|--L------------------|
-------------------|-----------11--------|--8----------------|--L------------------|


  W                   H        H           W                   H        H         
-------------------|-----------1--------|-------------------|-----------1--------|
-------------------|-----------1--------|--3----------------|-----------1--------|
-------------------|--------------------|--3----------------|--------------------|
-------------------|--------------------|-------------------|--------------------|
-------------------|--------------------|-------------------|--------------------|
-------------------|--------------------|-------------------|--------------------|


  W                   H        H           W                   H        H         
-------------------|--------------------|-------------------|-----------1--------|
--3----------------|--1-----------------|-------------------|-----------1--------|
--3----------------|--2-----------------|-------------------|--------------------|
-------------------|--------------------|-------------------|--------------------|
-------------------|-----------4--------|--1----------------|--------------------|
-------------------|--------------------|-------------------|--------------------|


  H        H           H        H           H        H           H        H         
--------------------|-----------1--------|--------------------|-----------1--------|
-----------3--------|--------------------|-----------3--------|--------------------|
--------------------|--3--------L--------|--------------------|--3--------L--------|
--------------------|--------------------|--------------------|--------------------|
--------------------|--------------------|--------------------|--------------------|
--------------------|--------------------|--------------------|--------------------|


  W                   H        H           H        H                     
-------------------|--------------------|--------------------|-----------|
--3----------------|--1-----------------|--------------------|-----------|
--3----------------|--2-----------------|--------------------|-----------|
-------------------|--------------------|--------------------|-----------|
-------------------|-----------4--------|--1-----------------|-----------|
-------------------|--------------------|--------------------|-----------|


  2:30 "So ya keep sayin'"                                                                          
  |-------------3-------------|  |--3--|  |--3--|  |--3--|     |--3--|  |--3--|  |--3--|  |--3--|   
  E                        E  E  E  E  E  E  E  E  E  E  E     E  E  E  E  E  E  E  E  E  E  E  E   
--x------------------------x--x--6--L--6--x--x--x--3--L--3--|--x--x--x--5--L--5--x--x--x--1--L--1--|
--x------------------------x--x--8--L--8--x--x--x--4--L--4--|--x--x--x--6--L--6--x--x--x--3--L--3--|
--x------------------------x--x--7--L--7--x--x--x--3--L--3--|--x--x--x--5--L--5--x--x--x--2--L--2--|
------------------------------------------------------------|--------------------------------------|
------------------------------------------------------------|--------------------------------------|
------------------------------------------------------------|--------------------------------------|


  |--3--|  |--3--|  |--3--|  |--3--|     |--3--|  |--3--|  |--3--|   |---3--|   
  E  E  E  E  E  E  E  E  E  E  E  E     E  E  E  E  E  E  E  E  E   E  E   E   
--x--x--x--6--L--6--x--x--x--3--L--3--|--x--x--x--5--L--5--x--x--x---8--L---8--|
--x--x--x--8--L--8--x--x--x--4--L--4--|--x--x--x--6--L--6--x--x--x--10--L--10--|
--x--x--x--7--L--7--x--x--x--3--L--3--|--x--x--x--5--L--5--x--x--x--10--L--10--|
--------------------------------------|----------------------------------------|
--------------------------------------|----------------------------------------|
--------------------------------------|----------------------------------------|


  |--3--|  |--3--|  |--3--|  |--3--|     |--3--|  |--3--|  |--3--|  |--3--|   
  E  E  E  E  E  E  E  E  E  E  E  E     E  E  E  E  E  E  E  E  E  E  E  E   
--x--x--x--6--L--6--x--x--x--3--L--3--|--x--x--x--5--L--5--x--1--x-----L-----|
--x--x--x--8--L--8--x--x--x--4--L--4--|--x--x--x--6--L--6--x-----x--4--3-----|
--x--x--x--7--L--7--x--x--x--3--L--3--|--x--x--x--5--L--5--x-----x-----L--3--|
--------------------------------------|--------------------------------------|
--------------------------------------|--------------------------------------|
--------------------------------------|--------------------------------------|


  |--3--|  |--3--|  |--3--|  |--3--|     |--3--|  |---3--|   |--3--|   |---3--|    
  E  E  E  E  E  E  E  E  E  E  E  E     E  E  E  E   E  E   E  E  E   E  E   E    
--x--x--x--6--L--6--x--x--x--3--L--3--|---------------------10-----8----------8s--|
--x--x--x--8--L--8--x--x--x--4--L--4--|--------------10---------------10-----10s--|
--x--x--x--7--L--7--x--x--x--3--L--3--|-------------------------------------------|
--------------------------------------|-------------------------------------------|
--------------------------------------|-------------------------------------------|
--------------------------------------|-------------------------------------------|


  H        H           H        H                       H        H         
--6-----------------|-----------1--------|-----------|-----------1--------|
--8-----------------|-----------1--------|-----------|-----------1--------|
--------------------|--------------------|-----------|--------------------|
--------------------|--------------------|-----------|--------------------|
--------------------|--------------------|-----------|--------------------|
--------------------|--------------------|-----------|--------------------|


  |--3--|  |--3--|  |--3--|  |--3--|     |--3--|  |--3--|  |--3--|  |--3--|                       
  E  E  E  E  E  E  E  E  E  E  E  E     E  E  E  E  E  E  E  E  E  E  E  E     W                 
--------------------------0--L-----L--|--------------------------------------|-------------------|
--------------1--L--3--L--------3-----|--------------3--L--------------1--L--|--L----------------|
--0--L--3--L-----------------------L--|--------5--L--------------3--L--------|--L----------------|
--------------------------------------|--4--L--------------3--L--------------|--L----------------|
--------------------------------------|--------------------------------------|--1----------------|
--------------------------------------|--------------------------------------|-------------------|


  H        H           H        H           H        H           H        H         
-----------1--------|--------------------|-----------1--------|--6--------3--------|
-----------1--------|-----------3--------|--------------------|--------------------|
--------------------|--------------------|--3--------L--------|--------------------|
--------------------|--------------------|--------------------|--------------------|
--------------------|--------------------|--------------------|--------------------|
--------------------|--------------------|--------------------|--------------------|


  |---3--|                                          |--3--|       |--3--|  |--3--|   
  E   E  E  Q    H            H         H           E  E  E  Q    E  E  E  E  E  E   
--3h--5--L--L----1--------|----------------------|----------------------------------|
--------------------------|----------------------|----------------------------------|
--------------------------|----------------------|----------------------------------|
--------------------------|--11--------11--------|--x--8--L--8----8--8--8--8--8--8--|
--------------------------|--11--------11--------|--x--8--L--8----8--8--8--8--8--8--|
--------------------------|--11--------11--------|--x--8--L--8----8--8--8--8--8--8--|


                                           "I needed...."                           
  |--3--|  |--3--|  |--3--|  |--3--|       |--------3--------|  |--3--|             
  E  E  E  E  E  E  E  E  E  E  E  E       E              E  E  E  E  E  Q    Q     
--------------------------------------||-------------------------------------------|
--------------------------------------||---4--------------L--4--L--4--4--4----L----|
--------------------------------------||*------------------------------------------|
--8--8--8--8--8--8--8--8--8--8--8--8--||*--4--------------L--4--L--4--4--4----L----|
--8--8--8--8--8--8--8--8--8--8--8--8--||---4--------------L--4--L--4--4--4----L----|
--8--8--8--8--8--8--8--8--8--8--8--8--||---4--------------L--4--L--4--4--4----L----|


  |--3--|  |--3--|               |--3--|  |--3--|   |---3---|   |---3---|   
  E  E  E  E  E  E  Q    Q       E  E  E  E  E  E   E   E   E   E   E   E   
--0--L--0--L--0--0--0----L----|--------------------------------------------|
--1--L--1--L--1--1--1----L----|--8--8--8--8--8--8--10--10--10--10--10--10--|
--0--L--0--L--0--0--0----L----|--7--7--7--7--7--7--10--10--10--10--10--10--|
--1--L--1--L--1--1--1----L----|--------------------------------------------|
--1--L--1--L--1--1--1----L----|--------------------------------------------|
--1--L--1--L--1--1--1----L----|--------------------------------------------|


                                                          "Oh no..."                        
   |---3---|   |---3---|   |---3---|   |---3---|       |------3------|  |--3--|             
   E   E   E   E   E   E   E   E   E   E   E   E       E  E          E  E  E  E  Q    Q     
---------------------------8---8---8---8---8---8---||--------------------------------------|
--11--11--11--11--11--11---------------------------||--4--L----------4--L--4--4--4----L----|
--10--10--10--10--10--10--10--10--10--10--10--10--*||--------------------------------------|
--------------------------------------------------*||--4--L----------4--L--4--4--4----L----|
---------------------------------------------------||--4--L----------4--L--4--4--4----L----|
---------------------------------------------------||--4--L----------4--L--4--4--4----L----|


  |--3--|  |--3--|               |--3--|  |--3--|  |--3--|  |--3--|   
  E  E  E  E  E  E  Q    Q       E  E  E  E  E  E  E  E  E  E  E  E   
--0--L--0--L--0--0--0----L----|--0--L--0--L--0--0--0--L--0--L--0--L--|
--1--L--1--L--1--1--1----L----|--8--L--8--L--8--8--8--L--8--L--8--L--|
--0--L--0--L--0--0--0----L----|--0--L--0--L--0--0--0-----0-----0--L--|
--1--L--1--L--1--1--1----L----|--8--L--8--L--8--8--8--L--8--L--8--L--|
--1--L--1--L--1--1--1----L----|--8--L--8--L--8--8--8--L--8--L--8--L--|
--1--L--1--L--1--1--1----L----|--8--L--8--L--8--8--8--L--8--L--8--L--|


  |--3--|  |--3--|  |--3--|  |--3--|     |--3--|  |--3--|             
  E  E  E  E  E  E  E  E  E  E  E  E     E  E  E  E  E  E  Q    Q     
--0--L--0--L--0--0--0--L--0--L--0--L--|------------------------------|
--8--L--8--L--8--8--8--L--8--L--8--L--|--4--L--4--L--4--4--4----L----|
--0--L--0--L--0--0--0-----0-----0--L--|------------------------------|
--8--L--8--L--8--8--8--L--8--L--8--L--|--4--L--4--L--4--4--4----L----|
--8--L--8--L--8--8--8--L--8--L--8--L--|--4--L--4--L--4--4--4----L----|
--8--L--8--L--8--8--8--L--8--L--8--L--|--4--L--4--L--4--4--4----L----|


                                 " This can't be happ...ening"                               
  |--3--|  |--3--|                                                                           
  E  E  E  E  E  E  Q    Q       W                                W                H         
--0--L--0--L--0--0--0----L----|--0-----------------------------|----------------------------|
--1--L--1--L--1--1--1----L----|--8-----------------------------|----------------------------|
--0--L--0--L--0--0--0----L----|--0-----------------------------|----------------------------|
--1--L--1--L--1--1--1----L----|--8-----------------------------|--2-------------------------|
--1--L--1--L--1--1--1----L----|--8-----------------------------|--2-------------------------|
--1--L--1--L--1--1--1----L----|--8-----------------------------|--2-------------------------|


                                     "This myth is methodized" 4:00                          
                            |--3--|  |----------------3----------------|                     
                            E  E  E  E                              E  E  Q    H.            
-----------|-----------||-------------------------------------------------1-----------------|
-----------|-----------||-------------------------------------------1--L--L----L------------|
-----------|-----------||*--0--L--3--L------------------------------------L----L------------|
-----------|-----------||*------------------------------------------------------------------|
-----------|-----------||-------------------------------------------------------------------|
-----------|-----------||-------------------------------------------------------------------|


                               |--3--|  |--3--|                                                    
  W                H           E  E  E  E  E  E  Q    H.              W                H           
--L-------------------------|--------------------0----L------------|--L--------------------------||
--L-------------------------|--------------1--L-------L------------|--L--------------------------||
--L-------------------------|--0--L--3--L-------------L------------|--L-------------------------*||
----------------------------|--------------------------------------|----------------------------*||
----------------------------|--------------------------------------|-----------------------------||
----------------------------|--------------------------------------|-----------------------------||


  |--3--|  |--3--|                                                     
  E  E  E  E  E  E  Q    H.              Q    Q    Q    Q    H         
--------------------------------------|--L----0----L----0----L--------|
--------------------6----L------------|--6----L----6----L----L--------|
--0--L--3--L--5--L--L----L------------|--L----L----L----L-------------|
--------------------------------------|-------------------------------|
--------------------------------------|-------------------------------|
--------------------------------------|-------------------------------|


  |--3--|  |--3--|                                                  
  E  E  E  E  E  E  Q    H.              W                H         
--------------------0----L------------|--L-------------------------|
--------------------------------------|----------------------------|
--------0--L--3--L--L----L------------|-------------------3--------|
--------------------------------------|----------------------------|
--------------------------------------|----------------------------|
--------------------------------------|----------------------------|


  |--3--|  |--3--|                                                  
  E  E  E  E  E  E  Q    H.              W                H         
--------------------1----L------------|--L-------------------------|
--------------1--L--L----L------------|--L-------------------------|
--0--L--3--L--------L----L------------|--L-------------------------|
--------------------------------------|----------------------------|
--------------------------------------|----------------------------|
--------------------------------------|----------------------------|


                                                                      Solo 4:42                  
  >                                                                                              
  |--3--|  |--3--|                                                                               
  E  E  E  E  E  E  Q    H.              W                H           H.           H.            
--------------------1----L------------|----------------------------|----------------------------|
--------------1--L--L----L------------|----------------------------|----------------------------|
--------3--L--------L----L------------|----------------------------|----------------------------|
--------------------------------------|--6----------------L--------|----------------------------|
--4--L--------------L----L------------|--6----------------L--------|----------------------------|
--------------------------------------|--6----------------L--------|----------------------------|


                               Solo                                   
                               |---3---|                              
  H.           H.              E    E  E   Q    Q.     E  Q.     E    
----------------------------|-------6--8--10----L--------------------|
----------------------------|-----------------------------8------L\--|
----------------------------|----------------------------------------|
----------------------------|----------------------------------------|
----------------------------|----------------------------------------|
----------------------------|----------------------------------------|


            |--3--|                                                        
  Q    Q    E  E  E   Q    Q.     E      Q    Q      Q     Q    Q    Q     
---------------6--8--10----L---------|-------------------------------8----|
-------------------------------------|--/8----6----/10----11----8---------|
-------------------------------------|------------------------------------|
-------------------------------------|------------------------------------|
-------------------------------------|------------------------------------|
-------------------------------------|------------------------------------|


                PM                    PM                                                          
       |--3--|                                                                                    
  Q    E  E  E  H        Q    Q       H.           Q    Q    Q       H        H        Q    Q     
-----------------------------------|------------------------------|------------------------------|
-----------------------------------|--------------------6----8----|--5---------------------------|
--7----5--7--L--0--------5----7----|--0---------------------------|-----------5--------8----3----|
-----------------------------------|------------------------------|------------------------------|
-----------------------------------|------------------------------|------------------------------|
-----------------------------------|------------------------------|------------------------------|


                     |--3--|  |--3--|     |--3--|  |--3--|        |--3--|               
  H         H        E  E  E  E  E  E     E  E  E  E  E  E  Q     E  E  E  Q     Q      
---------------------------------------|-----------------------------------------------|
---------------------------------------|-----------------------------------------------|
--5b-----------------0--3--5--7--x--x--|--7--x--x--3--5--7--5~----3--5--7--5~----2~----|
---------------------------------------|-----------------------------------------------|
---------------------------------------|-----------------------------------------------|
---------------------------------------|-----------------------------------------------|


        |--3--|        |--3--|                    |--3--|        |--3--|             
  E  E  E  E  E  Q     E  E  E  H           E  E  E  E  E  Q     E  E  E  Q    Q     
-----------------------------------------|------------------------------------------|
--------------------------------6--------|--------------------------------6----8----|
--x-----3--5--7--5~----3--5--7--L--------|--x-----3--5--7--5~----3--5--7------------|
-----------------------------------------|------------------------------------------|
-----------------------------------------|------------------------------------------|
-----------------------------------------|------------------------------------------|


                                                |--3--|  |----3---|  |---3--|   
  H        H        Q    Q        H        Q    E  E  E  E    E   E  E   E  E   
-------------------------------|-----------------------------------------------|
--5----------------------------|-------------------------------------8S--L--6--|
-----------5--------8----3S----|--7-------------7--x--7--7h--10p--7------------|
-------------------------------|-----------------------------------------------|
-------------------------------|-----------------------------------------------|
-------------------------------|-----------------------------------------------|


                   |--3--|  |----3---|  |---3--|           |--3--|                          
  E  E  E  E  Q    E  E  E  E    E   E  E   E  E     E  E  E  E  E  Q     Q    Q      Q     
--------------------------------------------------|----------------------------------------|
----------------------------------------8S--L--6--|-----------------8S----6----8S----10----|
--------7-----7----7--x--7--7h--10p--7------------|-----------x--x-------------------------|
--------------------------------------------------|----------------------------------------|
--------------------------------------------------|----------------------------------------|
--------------------------------------------------|----------------------------------------|


  Q     Q    Q     Q    Q    Q       H.           Q    H         
----------------------------------|-----------------------------|
--6s----5-------------------------|-----------------------------|
-------------5p----0----8----7----|--L--------------------------|
------------------------8----8----|--L--------------------------|
----------------------------------|-----------------------------|
----------------------------------|-----------------------------|


  |--3--|                |--3--|  |---3--|                                  
  E  E  E  H        Q    E  E  E  E  E   E      Q    H        H.            
--------6----------------------6-------------|-------5---------------------|
-----------8----------------------8----------|-----------------------------|
-----7----------------------7--------7s--3s--|--5--------------------------|
---------------------------------------------|-----------------------------|
---------------------------------------------|-----------------------------|
---------------------------------------------|-----------------------------|


  |--3--|                 |---3--|  |---3--|                             |--3--|   
  E  E  E  Q    Q    Q    E   E  E  E   E  E      Q.     Q.     H        E  E  E   
--------6-----------------5s--L--3-------------|-------------------------------5--|
-----------8-----------------------------------|----------------------------------|
-----7----------3----5--------------5s--L--3p--|--0-------------------------------|
-----------------------------------------------|----------------------------------|
-----------------------------------------------|----------------------------------|
-----------------------------------------------|----------------------------------|


       |--3--|   |--3--|  |--3--|  |--3--|  |--3--|                                           
  Q    E  E  E   E  E  E  E  E  E  E  E  E  E  E  E      Q    Q    E    E  E  E  E  E  E  E   
--6----L--------10--6-----------8--L-----------6--LS--|--5-----------------------5-----------|
-----------------------8-----8--------8---------------|---------------6g8-----------6--------|
--------------------------7--------------7--L---------|--------------------3--5--------2--L--|
------------------------------------------------------|--------------------------------------|
------------------------------------------------------|--------------------------------------|
------------------------------------------------------|--------------------------------------|


  H        Q    Q    Q    Q       H        Q    E    E  E  E  E  E   
-------------------------------|--6---------------------6--5--------|
-------------------------------|--8---------------------------------|
--L----------------------------|--7----------------5g7--------5--3--|
-------------------------------|------------------------------------|
-------------------------------|------------------------------------|
-------------------------------|------------------------------------|


  Q    Q      E  E  E  E   Q     Q       W                 H         
-----------------------5s--8~----L----|--L~-------------------------|
------------6g8-----------------------|-----------------------------|
--L--------------3--5-----------------|-----------------------------|
--------------------------------------|-----------------------------|
--------------------------------------|-----------------------------|
--------------------------------------|-----------------------------|


               |--3--|                                                
   Q     Q     E  E  E  H.              W                 Q     Q     
-------------------------------------|-------------------------------|
-------------------------------------|-------------------------------|
--10----10----10--L------------------|-------------------10----10----|
--10----10----10--L-----8------------|--L----------------10----10----|
------------------------8------------|--L----------------------------|
------------------------8------------|--L----------------------------|


                         v                                                                     
  W                Q     Q       W                 Q    Q       Q    Q    Q    Q    Q    Q     
------------------------------|------------------------------|--------------------------------|
------------------------------|------------------------------|--8----8----8----8----8----8----|
------------------------10----|-------------------10---------|--0----0----0----0----0----0----|
--8----------------L----10----|--8----------------10----6----|--8----8----8----8----8----8----|
--8----------------L----------|--8----------------------6----|--8----8----8----8----8----8----|
--8----------------L----------|--8----------------------6----|--8----8----8----8----8----8----|


                                       |--3--|                                   
  E  E  E  E  E  E  E  E  E  Q.        E  E  E  E  E  E  E   E  E  E   E  Q      
--------6--L--------3-----5---------|-----------6--L------------5---------8~----|
-----8-----------3------------------|--------8--------8-------------------------|
--7-----------3--------5-----2------|-----7--------------3S--5-----5S--7--------|
--8---------------------------------|--8----------------------------------------|
------------------------------------|-------------------------------------------|
------------------------------------|-------------------------------------------|


                                                            |---3--|  |---3--|   
  Q    E  E  E  E  E    E  E  E  Q       Q    Q    H        E   E  E  E   E  E   
-------6--L---------------------------|-----------------------------------------|
-------8--L--8-----8S--10--------6----|------------6----------------------------|
-------7--L-----7----------7--5-------|------------7----------------------------|
--8-----------------------------------|--6----8----L--------8p--L--6--8p--L--6--|
--------------------------------------|-----------------------------------------|
--------------------------------------|-----------------------------------------|


                   |---3--|  |---3--|                       |---3--|  |---3--|   
  W                E   E  E  E   E  E     H        H        E   E  E  E   E  E   
---------------------------------------|----------------------------------------|
---------------------------------------|----------------------------------------|
-----------------------------5h--L--7--|------------------------------5h--L--7--|
--8----------------8p--L--6------------|--8--------8--------8p--L--6------------|
---------------------------------------|----------------------------------------|
---------------------------------------|----------------------------------------|


                                                   |--3--|         |--3--|              
  H        H        H                        Q     E  E  E   Q     E  E  E   Q    Q     
-----------------------------|-----------|---------------------------------------------|
--5--------5-----------------|-----------|---------------------------------------------|
--5--------5-----------------|-----------|--10----10--x--x--10----10--x--x--10----9----|
--5--------5-----------------|-----------|--10----10--x--x--10----10--x--x--10----8----|
-----------------------------|-----------|---------------------------------------------|
-----------------------------|-----------|---------------------------------------------|


         |--3--|         |--3--|                       |--3--|         |--3--|              
   Q     E  E  E   Q     E  E  E   Q    Q        Q     E  E  E   Q     E  E  E   Q    Q     
---------------------------------------------|---------------------------------------------|
---------------------------------------------|---------------------------------------------|
--10----10--x--x--10----10--x--x--10----9----|--10----10--x--x--10----10--x--x--10----9----|
--10----10--x--x--10----10--x--x--10----8----|--10----10--x--x--10----10--x--x--10----8----|
---------------------------------------------|---------------------------------------------|
---------------------------------------------|---------------------------------------------|


  Q    Q    Q    Q    Q    Q       W                 H           W                 H         
--------------------------------|-----------------------------|-----------------------------|
--------------------------------|-----------------------------|-----------------------------|
-------0----5----7----3----2----|-------------------10--------|-------------------10--------|
--5-----------------------------|--8----------------10--------|--8----------------10--------|
--------------------------------|--8--------------------------|--8--------------------------|
--------------------------------|--8--------------------------|--8--------------------------|


  W                 H                                                                     
-----------------------------|-----------|-----------|-----------|-----------|-----------|
-----------------------------|-----------|-----------|-----------|-----------|-----------|
-------------------10--------|-----------|-----------|-----------|-----------|-----------|
--8----------------10--------|-----------|-----------|-----------|-----------|-----------|
--8--------------------------|-----------|-----------|-----------|-----------|-----------|
--8--------------------------|-----------|-----------|-----------|-----------|-----------|


                                                                         v     
                                                  H        H        Q    Q     
-----------|-----------|-----------|-----------|-------------------------1----|
-----------|-----------|-----------|-----------|-------------------------3----|
-----------|-----------|-----------|-----------|------------------------------|
-----------|-----------|-----------|-----------|------------------------------|
-----------|-----------|-----------|-----------|------------------------------|
-----------|-----------|-----------|-----------|------------------------------|


                    |--3--|  |--3--|     |--3--|                         
  H        H        E  E  E  E  E  E     E  E  E  W                Q     
--------------------------------------|---------------------------------|
--------------------------------------|---------------------------------|
--------------------7--L--5--L--3--L--|--5--L--7--5---------------------|
--------------------------------------|---------------------------------|
--1-----------------------------------|---------------------------------|
--------------------------------------|---------------------------------|


                                                               v     
                    |--3--|  |--3--|                                 
  H        H        E  E  E  E  E  E     W                Q    Q     
--------------------------------------|------------------------1----|
--------------------------------6--L--|------------------------3----|
--5--------3--------------3--L--5--L--|--7--------------------------|
--------------------------------------|-----------------------------|
--------------------------------------|-----------------------------|
--------------------------------------|-----------------------------|


                    |--3--|  |--3--|     |--3--|                         
  H        H        E  E  E  E  E  E     E  E  E  W                Q     
--------------------------------------|---------------------------------|
--------------------------------------|---------------------------------|
--------------------7--L--5--L--3--L--|--5--L--7--5---------------------|
--------------------------------------|---------------------------------|
--1-----------------------------------|---------------------------------|
--------------------------------------|---------------------------------|


                    |--3--|  |--3--|                                 
  H        H        E  E  E  E  E  E     H        H        H         
--------------------------------------|-----------------------------|
--------------------------------------|-----------6-----------------|
--5--------3--------------------------|-----------------------------|
--------------------------8--L--6--L--|--8--------------------------|
--------------------------------------|-----------------------------|
--------------------------------------|-----------------------------|


  S  S Q.     H        H           S  S Q.     H        H           H        W                 
--5s-6-L------------------------|--3s-5-L------------------------|----------------------------|
--------------8-----------------|--------------6-----------------|----------------------------|
-----------------------7--------|-----------------------5--------|--3-------------------------|
--------------------------------|--------------------------------|----------------------------|
--------------------------------|--------------------------------|----------------------------|
--------------------------------|--------------------------------|----------------------------|


  |----3----|                                                                                 
  Q    Q    Q    W                   H        W                   W                Q    Q     
----------------------------------|-----------0----------------|-----------------------------|
----------------------------------|--4--------1----------------|--8----------------8----6----|
-------0----2----3----------------|-----------0----------------|--0----------------0---------|
----------------------------------|--4--------1----------------|--8----------------8----6----|
----------------------------------|--4--------1----------------|--8----------------8----6----|
----------------------------------|--4--------1----------------|--8----------------8----6----|


  H        W                   H        H        Q    Q       H        W                 
-----------0----------------|------------------------------|-----------0----------------|
--4--------1----------------|--8--------8--------8---------|--4--------1----------------|
-----------0----------------|--0--------0--------0----7----|-----------0----------------|
--4--------1----------------|--8--------8--------8----x----|--4--------1----------------|
--4--------1----------------|--8--------8--------8----8----|--4--------1----------------|
--4--------1----------------|--8--------8--------8---------|--4--------1----------------|


  H        H        E   E  E  E     H        W                   Q    Q    Q    Q     
---------------------------------|-----------0----------------|----------------------|
--8--------8--------L------------|--4--------1----------------|----------------------|
--0--------0--------L------------|-----------0----------------|----------------------|
--8--------8--------L------------|--4--------1----------------|--8---------8---------|
--8--------8--------6s--8--4--6--|--4--------1----------------|--8---------8---------|
--8--------8--------L---------6--|--4--------1----------------|--8---------8---------|


  Q    Q    Q    Q       Q    Q    Q    Q       Q    Q    Q    Q       Q     Q     Q     Q     
----------------------|----------------------|----------------------|-------10----10----10----|
----------------------|----------------------|----------------------|-------11----11----11----|
----------------------|----------------------|----------------------|-------12----12----12----|
--8---------8---------|--8---------8---------|--8---------8---------|-------------------------|
--8---------8---------|--8---------8---------|--8---------8---------|-------------------------|
--8---------8---------|--8---------8---------|--8---------8---------|-------------------------|


  Q     Q     Q     Q       Q     Q     Q     Q       Q    Q    Q    Q       Q    Q    Q    Q     
--------8-----8-----8----|--------8-----8-----8----|-------6----6----6----|-------3----3----3----|
-------10----10----10----|-------10----10----10----|-------8----8----8----|-------4----4----4----|
-------10----10----10----|-------10----10----10----|-------7----7----7----|-------3----3----3----|
-------------------------|-------------------------|----------------------|----------------------|
-------------------------|-------------------------|----------------------|----------------------|
-------------------------|-------------------------|----------------------|----------------------|


                                        |---3---|                         
  Q    Q    Q    Q       Q    Q    Q    E   E   E     Q    Q    H         
-------5----5----5----|-----------------5h--6p--5--|---------------------|
-------6----6----6----|-------6----6----6---L---L--|---------------------|
-------5----5----5----|-------7----7----7---L---L--|---------------------|
----------------------|----------------------------|--8----8----6--------|
----------------------|----------------------------|---------------------|
----------------------|----------------------------|---------------------|


  |---3--|  |---3--|   |---3--|  |---3--|     |---3--|  |---3--|   |---3--|  |---3--|   
  E  E   E  E   E  E   E  E   E  E   E  E     E  E   E  E   E  E   E  E   E  E   E  E   
----------------------13--L----------------|----------------------12--L----------------|
---------------15--L---------15--L---------|---------------13--L---------13--L---------|
--------12--L-----------------------15--L--|--------12--L-----------------------12--L--|
-------------------------------------------|-------------------------------------------|
-------------------------------------------|-------------------------------------------|
-------------------------------------------|-------------------------------------------|


  |---3--|  |---3--|   |---3--|  |---3--|     |---3--|  |---3--|   |---3--|  |---3--|   
  E  E   E  E   E  E   E  E   E  E   E  E     E  E   E  E   E  E   E  E   E  E   E  E   
----------------------11--L----------------|----------------------10--L----------------|
---------------13--L---------13--L---------|---------------11--L---------11--L---------|
--------12--L-----------------------12--L--|--------12--L-----------------------12--L--|
-------------------------------------------|-------------------------------------------|
-------------------------------------------|-------------------------------------------|
-------------------------------------------|-------------------------------------------|


  |--3--|  |--3--|  |--3--|  |--3--|     |---3--|  |---3--|  |---3--|  |---3--|   
  E  E  E  E  E  E  E  E  E  E  E  E     E  E   E  E   E  E  E  E   E  E   E  E   
--------------------6--L--------------|----------------------8--L----------------|
--------------8--L--------8--L--------|---------------10--L--------10--L---------|
--------7--L--------------------7--L--|--------10--L----------------------10--L--|
--------------------------------------|------------------------------------------|
--------------------------------------|------------------------------------------|
--------------------------------------|------------------------------------------|


  |--3--|  |--3--|  |--3--|  |--3--|                         
  E  E  E  E  E  E  E  E  E  E  E  E     Q    Q    H         
--------------------5--L--------------|---------------------|
--------------6--L--------6--L--------|---------------------|
--------5--L--------------------5--L--|---------------------|
--------------------------------------|--8----8----6--------|
--------------------------------------|---------------------|
--------------------------------------|---------------------|


  Outro                                                                                           
                T           T       T           T                T          T      T          T   
  |----3----|   |---3---|   |---3---|   |---3---|     |---3---|  |---3---|  |---3--|   |---3--|   
  E     E   E   E   E   E   E   E   E   E   E   E     E   E   E  E   E   E  E   E  E   E   E  E   
---------------------------------------------------|---------------------------------------------|
---------------------------------------------------|---------------------------------------------|
--0h----3h--5--10p--3h--5--10p--5--10p--3p--0--10--|--0h--3h--5--9p--3h--5--9p--5--9p--3p--0--9--|
---------------------------------------------------|---------------------------------------------|
---------------------------------------------------|---------------------------------------------|
---------------------------------------------------|---------------------------------------------|


             T          T      T          T                T          T             T       
  |---3---|  |---3---|  |---3--|   |---3--|     |---3---|  |---3---|  |---3--|   |---3--|   
  E   E   E  E   E   E  E   E  E   E   E  E     E   E   E  E   E   E  E  E   E   E  E   E   
---------------------------------------------|---------------------------------------------|
---------------------------------------------|---------------------------------------------|
--0h--3h--5--8p--3h--5--8p--5--8p--3p--0--8--|--0h--3h--5--7p--3h--5--7--0h--2h--3--5p--2--|
---------------------------------------------|---------------------------------------------|
---------------------------------------------|---------------------------------------------|
---------------------------------------------|---------------------------------------------|


              T           T       T           T                T          T      T          T   
  |---3---|   |---3---|   |---3---|   |---3---|     |---3---|  |---3---|  |---3--|   |---3--|   
  E   E   E   E   E   E   E   E   E   E   E   E     E   E   E  E   E   E  E   E  E   E   E  E   
-------------------------------------------------|---------------------------------------------|
-------------------------------------------------|---------------------------------------------|
--0h--3h--5--10p--3h--5--10p--5--10p--3p--0--10--|--0h--3h--5--9p--3h--5--9p--5--9p--3p--0--9--|
-------------------------------------------------|---------------------------------------------|
-------------------------------------------------|---------------------------------------------|
-------------------------------------------------|---------------------------------------------|


             T          T      T          T                T          T             T       
  |---3---|  |---3---|  |---3--|   |---3--|     |---3---|  |---3---|  |---3--|   |---3--|   
  E   E   E  E   E   E  E   E  E   E   E  E     E   E   E  E   E   E  E  E   E   E  E   E   
---------------------------------------------|---------------------------------------------|
---------------------------------------------|---------------------------------------------|
--0h--3h--5--8p--3h--5--8p--5--8p--3p--0--8--|--0h--3h--5--7p--3h--5--7--0h--2h--3--5p--2--|
---------------------------------------------|---------------------------------------------|
---------------------------------------------|---------------------------------------------|
---------------------------------------------|---------------------------------------------|


              T           T       T           T                T          T      T          T   
  |---3---|   |---3---|   |---3---|   |---3---|     |---3---|  |---3---|  |---3--|   |---3--|   
  E   E   E   E   E   E   E   E   E   E   E   E     E   E   E  E   E   E  E   E  E   E   E  E   
-------------------------------------------------|---------------------------------------------|
-------------------------------------------------|---------------------------------------------|
--0h--3h--5--10p--3h--5--10p--5--10p--3p--0--10--|--0h--3h--5--9p--3h--5--9p--5--9p--3p--0--9--|
-------------------------------------------------|---------------------------------------------|
-------------------------------------------------|---------------------------------------------|
-------------------------------------------------|---------------------------------------------|


             T          T      T          T                T          T             T       
  |---3---|  |---3---|  |---3--|   |---3--|     |---3---|  |---3---|  |---3--|   |---3--|   
  E   E   E  E   E   E  E   E  E   E   E  E     E   E   E  E   E   E  E  E   E   E  E   E   
---------------------------------------------|---------------------------------------------|
---------------------------------------------|---------------------------------------------|
--0h--3h--5--8p--3h--5--8p--5--8p--3p--0--8--|--0h--3h--5--7p--3h--5--7--0h--2h--3--5p--2--|
---------------------------------------------|---------------------------------------------|
---------------------------------------------|---------------------------------------------|
---------------------------------------------|---------------------------------------------|


              T           T       T           T                T          T      T          T   
  |---3---|   |---3---|   |---3---|   |---3---|     |---3---|  |---3---|  |---3--|   |---3--|   
  E   E   E   E   E   E   E   E   E   E   E   E     E   E   E  E   E   E  E   E  E   E   E  E   
-------------------------------------------------|---------------------------------------------|
-------------------------------------------------|---------------------------------------------|
--0h--3h--5--10p--3h--5--10p--5--10p--3p--0--10--|--0h--3h--5--9p--3h--5--9p--5--9p--3p--0--9--|
-------------------------------------------------|---------------------------------------------|
-------------------------------------------------|---------------------------------------------|
-------------------------------------------------|---------------------------------------------|


             T          T      T          T                T          T             T       
  |---3---|  |---3---|  |---3--|   |---3--|     |---3---|  |---3---|  |---3--|   |---3--|   
  E   E   E  E   E   E  E   E  E   E   E  E     E   E   E  E   E   E  E  E   E   E  E   E   
---------------------------------------------|---------------------------------------------|
---------------------------------------------|---------------------------------------------|
--0h--3h--5--8p--3h--5--8p--5--8p--3p--0--8--|--0h--3h--5--7p--3h--5--7--0h--2h--3--5p--2--|
---------------------------------------------|---------------------------------------------|
---------------------------------------------|---------------------------------------------|
---------------------------------------------|---------------------------------------------|


              T           T       T           T                T          T      T          T   
  |---3---|   |---3---|   |---3---|   |---3---|     |---3---|  |---3---|  |---3--|   |---3--|   
  E   E   E   E   E   E   E   E   E   E   E   E     E   E   E  E   E   E  E   E  E   E   E  E   
-------------------------------------------------|---------------------------------------------|
-------------------------------------------------|---------------------------------------------|
--0h--3h--5--10p--3h--5--10p--5--10p--3p--0--10--|--0h--3h--5--9p--3h--5--9p--5--9p--3p--0--9--|
-------------------------------------------------|---------------------------------------------|
-------------------------------------------------|---------------------------------------------|
-------------------------------------------------|---------------------------------------------|


             T          T      T          T                T          T             T       
  |---3---|  |---3---|  |---3--|   |---3--|     |---3---|  |---3---|  |---3--|   |---3--|   
  E   E   E  E   E   E  E   E  E   E   E  E     E   E   E  E   E   E  E  E   E   E  E   E   
---------------------------------------------|---------------------------------------------|
---------------------------------------------|---------------------------------------------|
--0h--3h--5--8p--3h--5--8p--5--8p--3p--0--8--|--0h--3h--5--7p--3h--5--7--0h--2h--3--5p--2--|
---------------------------------------------|---------------------------------------------|
---------------------------------------------|---------------------------------------------|
---------------------------------------------|---------------------------------------------|


              T           T       T           T                T          T      T          T   
  |---3---|   |---3---|   |---3---|   |---3---|     |---3---|  |---3---|  |---3--|   |---3--|   
  E   E   E   E   E   E   E   E   E   E   E   E     E   E   E  E   E   E  E   E  E   E   E  E   
-------------------------------------------------|---------------------------------------------|
-------------------------------------------------|---------------------------------------------|
--0h--3h--5--10p--3h--5--10p--5--10p--3p--0--10--|--0h--3h--5--9p--3h--5--9p--5--9p--3p--0--9--|
-------------------------------------------------|---------------------------------------------|
-------------------------------------------------|---------------------------------------------|
-------------------------------------------------|---------------------------------------------|


             T          T      T          T                T          T             T        
  |---3---|  |---3---|  |---3--|   |---3--|     |---3---|  |---3---|  |---3--|   |---3--|    
  E   E   E  E   E   E  E   E  E   E   E  E     E   E   E  E   E   E  E  E   E   E  E   E    
---------------------------------------------|---------------------------------------------||
---------------------------------------------|---------------------------------------------||
--0h--3h--5--8p--3h--5--8p--5--8p--3p--0--8--|--0h--3h--5--7p--3h--5--7--0h--2h--3--5p--2--||
---------------------------------------------|---------------------------------------------||
---------------------------------------------|---------------------------------------------||
---------------------------------------------|---------------------------------------------||





**************Outro for GUitar II

 Q    Q    H           E  E  E  E  E  E  E  E  E  E  E  E   
-----------|-----------|-----------|---------------------|--------------------------------------|
-----------|-----------|-----------|---------------------|--------------------------------------|
-----------|-----------|-----------|---------------------|--------------------------------------|
-----------|-----------|-----------|--8----8----6--------|--8--L-----8--L-----x--x--8--L-----8--|
-----------|-----------|-----------|--8----8----6--------|--8--L-----8--L-----x--x--8--L-----8--|
-----------|-----------|-----------|--8----8----6--------|--8--L-----8--L-----x--x--8--L-----8--|


  |--3--|       |--3--|  |--3--|     |--3--|       |--3--|  |--3--|     |--3--|                 
  E  E  E  Q    E  E  E  E  E  E     E  E  E  Q    E  E  E  E  E  E     E  E  E  Q    H         
----------------------------------|----------------------------------|-------------------------|
----------------------------------|----------------------------------|-------------------------|
----------------------------------|----------------------------------|-------------------------|
--L--L-----8----x--x--8--L-----8--|--L--L-----8----x--x--8--L-----8--|--L--L-----8----6--------|
--L--L-----8----x--x--8--L-----8--|--L--L-----8----x--x--8--L-----8--|--L--L-----8----6--------|
--L--L-----8----x--x--8--L-----8--|--L--L-----8----x--x--8--L-----8--|--L--L-----8----6--------|


  |--3--|  |--3--|  |--3--|  |--3--|     |--3--|       |--3--|  |--3--|   
  E  E  E  E  E  E  E  E  E  E  E  E     E  E  E  Q    E  E  E  E  E  E   
--------------------------------------|----------------------------------|
--------------------------------------|----------------------------------|
--------------------------------------|----------------------------------|
--8--L-----8--L-----x--x--8--L-----8--|--L--L-----8----x--x--8--L-----8--|
--8--L-----8--L-----x--x--8--L-----8--|--L--L-----8----x--x--8--L-----8--|
--8--L-----8--L-----x--x--8--L-----8--|--L--L-----8----x--x--8--L-----8--|


  |--3--|       |--3--|  |--3--|     |--3--|                   |--3--|  |--3--|  |--3--|  |--3--|   
  E  E  E  Q    E  E  E  E  E  E     E  E  E  Q    H           E  E  E  E  E  E  E  E  E  E  E  E   
----------------------------------|-------------------------|--------------------------------------|
----------------------------------|-------------------------|--------------------------------------|
----------------------------------|-------------------------|--------------------------------------|
--L--L-----8----x--x--8--L-----8--|--L--L-----8----6--------|--8--L-----8--L-----x--x--8--L-----8--|
--L--L-----8----x--x--8--L-----8--|--L--L-----8----6--------|--8--L-----8--L-----x--x--8--L-----8--|
--L--L-----8----x--x--8--L-----8--|--L--L-----8----6--------|--8--L-----8--L-----x--x--8--L-----8--|


  |--3--|       |--3--|  |--3--|     |--3--|       |--3--|  |--3--|     |--3--|                 
  E  E  E  Q    E  E  E  E  E  E     E  E  E  Q    E  E  E  E  E  E     E  E  E  Q    H         
----------------------------------|----------------------------------|-------------------------|
----------------------------------|----------------------------------|-------------------------|
----------------------------------|----------------------------------|-------------------------|
--L--L-----8----x--x--8--L-----8--|--L--L-----8----x--x--8--L-----8--|--L--L-----8----6--------|
--L--L-----8----x--x--8--L-----8--|--L--L-----8----x--x--8--L-----8--|--L--L-----8----6--------|
--L--L-----8----x--x--8--L-----8--|--L--L-----8----x--x--8--L-----8--|--L--L-----8----6--------|


  |--3--|  |--3--|  |--3--|  |--3--|     |--3--|       |--3--|  |--3--|   
  E  E  E  E  E  E  E  E  E  E  E  E     E  E  E  Q    E  E  E  E  E  E   
--------------------------------------|----------------------------------|
--------------------------------------|----------------------------------|
--------------------------------------|----------------------------------|
--8--L-----8--L-----x--x--8--L-----8--|--L--L-----8----x--x--8--L-----8--|
--8--L-----8--L-----x--x--8--L-----8--|--L--L-----8----x--x--8--L-----8--|
--8--L-----8--L-----x--x--8--L-----8--|--L--L-----8----x--x--8--L-----8--|


  |--3--|       |--3--|  |--3--|     |--3--|                                      
  E  E  E  Q    E  E  E  E  E  E     E  E  E  Q    H           H        H         
----------------------------------|-------------------------|--------------------|
----------------------------------|-------------------------|--------------------|
----------------------------------|-------------------------|--------------------|
--L--L-----8----x--x--8--L-----8--|--L--L-----8----6--------|--------------------|
--L--L-----8----x--x--8--L-----8--|--L--L-----8----6--------|-----------1--------|
--L--L-----8----x--x--8--L-----8--|--L--L-----8----6--------|--------------------|


  H        H           H        H           W                   H        H         
--------------------|--------------------|-------------------|--------------------|
--------------------|--------------------|-------------------|--------------------|
--------------------|--------------------|-------------------|--------------------|
--------------------|--4--------1--------|--3----------------|--------------------|
--4--------1--------|--------------------|-------------------|-----------1--------|
--------------------|--------------------|-------------------|--------------------|


  H        H           H        H           W                  
--------------------|--------------------|-------------------||*********************
--------------------|--------------------|-------------------||
--------------------|--------------------|-------------------||
--------------------|--4--------1--------|--3----------------||
--4--------1--------|--------------------|-------------------||
--------------------|--------------------|-------------------||



Duration Legend
---------------
W - whole
H - half
Q - quarter
E - 8th
S - 16th
T - 32nd
X - 64th
. - note dotted
|-n-|  - n-tuplets


Tablature Legend
----------------
L - tied note
x - dead note
g - grace note
(n) - ghost note
> - accentuded note
NH - natural harmonic
AH - artificial harmonic
TH - tapped harmonic
SH - semi harmonic
PH - pitch harmonic
h - hammer on
p - pull off
b - bend
br - bendRelease
pb - preBend
pbr - preBendRelease
brb - bendReleaseBend
\n/ - tremolo bar dip
\n - tremolo bar dive
-/n - tremolo bar Release up
/n\ - tremolo bar inverted dip
/n - tremolo bar return
-\n - tremolo bar Release down
S - shift slide
s - legato slide
/ -  slide into from below or out of upwards
\ -  slide into from above or out of downwards
~ - vibrato
W - wide vibrato
tr - trill
TP - tremolo picking
T - tapping
S - slap
P - pop
< - fade in
^ - brush up
v - brush down
Tap to rate this tab
 
# A B C D E F G H I J K L M N O P Q R S T U V W X Y Z