Song name
# A B C D E F G H I J K L M N O P Q R S T U V W X Y Z

Karnivool - Float tab

This song is probably played with a different tuning but it can be played on standard 
tuning fairly easily.

Intro

e|---------------------------------4-----------------------------------------------4------------2-|
B|----7--------6---7-\--------4-------------6---7-\--------4---------7--------6---------------4---|
G|--8--------6--------------4-------------6--------------4---------8--------6---------------4-----|
D|---------6--------------4-------------6--------------4------------------6---------------4-------|
A|-------4--------------2-------------4--------------2------------------4---------------2---------|
E|------------------------------------------------------------------------------------------------|

--6-----------------|
------------6---7---|
----------6---------|
--------6-----------|
------4-------------|
--------------------|

e|---------------------------------------------------------|
B|---------------------------------------------------------|
G|-------4-------4-------6-------8---------10---------11---|
D|---------------------------------------------------------|
A|-----6-------6-------8-------9--------11---------13------|
E|---4-------4-------6-------7-------10---------11---------|


Verse 1

e|------------------------------------------7--------------|
B|-------7-------6-------7-------6----------9--------------|
G|-------8-------6-------8-------6--------8----------------|
D|-----8-------6-------8-------6--------6------------------|
A|---6-------4-------6-------4-----------------------------|
E|---------------------------------------------------------|

Verse 2

e|-------7-------6-------7-------6-----------6-------------|
B|-------9-------7-------9-------7-----------7-------------|
G|-----8-------6-------8-------6-----------6---------------|
D|---6-------4-------6-------5-----------7-----------------|
A|---------------------------------------------------------|
E|---------------------------------------------------------|

Verse 1 and 2 repeat until the end of the song.

I must have made some mistakes because I tabbed this in a rush so please consider 
posting a comment if you spot an error.
Tap to rate this tab
# A B C D E F G H I J K L M N O P Q R S T U V W X Y Z