Song name
# A B C D E F G H I J K L M N O P Q R S T U V W X Y Z

Karnivool - Roquefort tab

INTRO

|---------------------------------------------------------------|
|---------------------------------------------------------------|
|---------------------------------------------------------------|
|---------------------------------------------------------------|
|------------------------------------5---------5----------------|
|-2h3p2p0h2p0--2h3p2p0h2p0--2h3p2p0h2---2h3p2p0-2--2h3p0-5-0-1--|  X5


|---------------------------------------------------------------|
|---------------------------------------------------------------|
|--------------------------------------------------5--5--4--4--3|
|--------------------------------------------------5--5--4--4--3|
|------------------------------------5---------5---3--3--2--2--1|
|-2h3p2p0h2p0--2h3p2p0h2p0--2h3p2p0h2---2h3p2p0-2---------------|


VERSE  (palm muted)

|---------------------------------------------------------------|
|---------------------------------------------------------------|
|---------------------------------------------------------------|
|---------------------------------------------------------------|
|----------------------------------------1^5--------------------|
|-2h3p2p0h2p0--2h3p2p0h2p0--2h3p2p0h2p0-------2-----------------|

you want to chase......

|---------------------------------------------------------------|
|---------------------------------------------------------------|
|---------------------------------------------------------------|
|---------------------------------------------0h2p0-------------|
|----------------------------------------0h1--------------------|
|-2h3p2p0h2p0--2h3p2p0h2p0--2h3p2p0h2p0--------------0h2--------|

you start to slide.....

|---------------------------------------------------------------|
|---------------------------------------------------------------|
|---------------------------------------------------------------|
|---------------------------------------------------------------|
|----------------------------------------1^5--------------------|
|-2h3p2p0h2p0--2h3p2p0h2p0--2h3p2p0h2p0-------2-----------------|

make haste its time.....

|---------------------------------------------------------------|
|---------------------------------------------------------------|
|---------------------------------------------------------------|
|----------------------------------------9-11-------------------|
|----------------------------------------7-9--------------------|
|-2h3p2p0h2p0--2h3p2p0h2p0--2h3p2p0h2p0-------------------------|

you say give in

This is all I've got so far. i think its pretty accurate, except for maybe a few of the 
chords. I'll finish the rest later.
Tap to rate this tab
# A B C D E F G H I J K L M N O P Q R S T U V W X Y Z