Song name
# A B C D E F G H I J K L M N O P Q R S T U V W X Y Z

Karpe Diem - Her tab

-------------------------------------------------------------------------------
                             HER (Intro) - Karpe Diem
-------------------------------------------------------------------------------


Tuning: Standard

e|-----5--4--------5--4------------------------------------------------------|
B|-----------5-----------5-----5--7------------------------------------------|
G|--------------6-----------6------------------------------------------------|
D|---------------------------------------------------------------------------|
A|---------------------------------------------------------------------------|
E|---------------------------------------------------------------------------|

e|-----5--4--------5--4-----7------------------------------------------------|
B|-----------5-----------5---------------------------------------------------|
G|--------------6------------------------------------------------------------|
D|---------------------------------------------------------------------------|
A|---------------------------------------------------------------------------|
E|---------------------------------------------------------------------------|
Tap to rate this tab
# A B C D E F G H I J K L M N O P Q R S T U V W X Y Z