Song name
# A B C D E F G H I J K L M N O P Q R S T U V W X Y Z

Karussell - Als Ich Fortging tab

Tempo = 90



E |----------------------|----------------------|--0-------------------|
B |--------------0-------|--0--1----------------|--------3-----1-------|
G |--------0--2-----2----|--------2-------------|-----2-----2-----2----|
D |--2--4----------------|--------------2-------|--0-------------------|
A |----------------------|--0--------0-----0----|----------------------|
E |--0-------------------|----------------------|----------------------|


----------------------|----------------------|----------------------|
--0-------------------|-----------0----------|--------3-------------|
--------0-------------|--------0-----2--0----|-----2-----2--0-------|
-----0-----------0----|--2--4----------------|--4--------------4----|
-----------2----------|--3-------------------|--5-------------------|
--3-------------------|----------------------|----------------------|


----------------------|---------------------|||-0-------------------|
--------0-----1-------|--------1-----0------|||-------1-----3-------|
-----0-----0-----0----|-----0-----0--------o|||o---0-----0-----0----|
--2-------------------|--2-----------------o|||o--------------------|
----------------------|---------------------|||-3-------------------|
--0-------------------|--0------------------|||---------------------|


----------------------|----------------------|
--3-----0--------0----|--1-----0-------------|
-----0-------0--------|--------------2-------|
----------0-----------|-----2-----2-----2----|
----------------------|--0-------------------|
--3-------------------|--3-------------------|


----------------------|----------------------|----------------------|
--0-------------------|-----------0----------|--------3-------------|
----------------------|--------0-----2--0----|-----2-----2--0-------|
-----2----------------|--2--4----------------|--4--------------4----|
--------2--2-----2----|--3-------------------|--5-------------------|
--0-----------0-------|----------------------|----------------------|


----------------------|---------------------|||
--------0-----1-------|--------1--------0---|||
-----0-----0-----0----|-----0-------0------o|||
--2-------------------|--2-----------------o|||
----------------------|---------------------|||
--0-------------------|--0------------------|||
Tap to rate this tab
# A B C D E F G H I J K L M N O P Q R S T U V W X Y Z