Guitaretab - guitar tabs
Song name
# A B C D E F G H I J K L M N O P Q R S T U V W X Y Z

Kasabian - Underdog tab

I've tabbed it in phrases so its easier to follow
It may not be 100% correct though :(
e|------------------------------------------------------------------|
B|----------------------------------------9/11\9--------------------|
G|-------------------------------------8~--------10~----------------|
D|--------/6~-------------10~-10/8\10-----------------8h10p8--------|
A|8~--6~------8-6-8~-----------------------------------------11-8~--|
E|------------------------------------------------------------------|

e|----------------------------------------|
B|------------9-11~--9-11-13-11/13-9------|
G|--8-------10-----------------------10~--|
D|----8/10~-------------------------------|
A|8---------------------------------------|
E|----------------------------------------|

e|-------------------13-11b-------|
B|---9---------9-13~----------9\6-|
G|10---10~--10--------------10----|
D|--------------------------------|
A|---------------------------------
E|--------------------------------|
[ Tab from: http://www.guitaretab.com/k/kasabian/184704.html ]
e|16\13-11/13~-13-11----------------------|
B|-------------------11~--9\6~--13~--\6~--|
G|----------------------------------------|
D|----------------------------------------|
A|----------------------------------------|
E|-----------------------------------------

e|-----------------8---------------8----------------|
B|----------11\9~----9b--------------9b-------------|
G|8/10~--8~------------10~--8/10~------10~--8/10~---|
D|--------------------------------------------------|
A|--------------------------------------------------|
E|--------------------------------------------------|

e|8-----------------------------------------------------|
B|--9b--------------------------------------------------|
G|----10~--8/10~----8~--10~----------8~---10~-----------|
D|--------------------------8~--7~-------------8~---7~--|
A|------------------------------------------------------|
E|------------------------------------------------------|

Thats all. I think he uses a flanger throughout the solo
Related for Underdog tab
Advertisement will be closed in 10 seconds