Song name
# A B C D E F G H I J K L M N O P Q R S T U V W X Y Z

Kasabian - Secret Alphabets tab

Kasabian - Secret Alphabets
Album: The West Ryder Pauper Lunatic Asylum
Tabbed by: Shayo (Shayo@pimpstyle.com)


The whole song just goes around one simple riff:


e|---------------------------------------------------------------------------|
B|---------------------------------------------------------------------------|
G|---------------------------------------------------------------------------|
D|---------------------------------------------------------------------------|
A|-----7--5--7---3-5-3-2-3----------7--5--7---3-5-3-2-3----------------------|
E|--5-------------------------3--5------------------------3------------------|


or:

e|---------------------------------------------------------------------------|
B|---------------------------------------------------------------------------|
G|---------------------------------------------------------------------------|
D|-----2--0--2-----0----------------2--0--2-----0----------------------------|
A|--0------------3---3-2-3-------0------------3---3-2-3----------------------|
E|----------------------------3---------------------------3------------------|

If you find it wrong, just move everything down a step, 'cause my guitar's just a little strange.

The other fill-ins and so are just these tones, just a little bit faster and with another rhythm.

Enjoy!

KASABIAN ROCKS! The new album too!
Tap to rate this tab
 
# A B C D E F G H I J K L M N O P Q R S T U V W X Y Z