Song name
# A B C D E F G H I J K L M N O P Q R S T U V W X Y Z

Kasabian - Swarfiga tab

There isn't too much going on
in this song, but my ear hears this.
The keyboard part is tough to pick out, 
but I'm sure the two main notes are- 
C (5th fret G String) 
B (4th fret G string)
The song is Bm, so just play around 
in the Bm pentatonic scale.  
I've tabbed out the bass and keyboard
parts for guitar as well. 


Bass Part:
e-------------|
B-------------|
G-------------|
D-------------|
A-------5-----|
E-7-7-7---7-5-|

Keyboard Part:
e--------------------------------|
B--------------------------------|
G-5p4p2-5p4p2-5p4p2-4p2-4p2-4p2--|
D----------------------4---4---4-|
A--------------------------------|
E--------------------------------|

Guitar Part:
e---------------------|
B---------------------|
G-7/4-4-4-----4-4-4-7-|
D-7/4-4-4-x-4-4-4-4-7-|
A-5/2-2-2-x-4-2-2-2-5-|
E-----------2---------|
Tap to rate this tab
# A B C D E F G H I J K L M N O P Q R S T U V W X Y Z