Song name
# A B C D E F G H I J K L M N O P Q R S T U V W X Y Z

Kasabian - Vlad The Impaler tab

tabbed by sid
my first tab really so dont gan wild if its wrong hehe :)

intro-use whammy pedal
|-----------------------------------------------------------|
|-----------------------------------------------------------|
|-----------------------------------------------------------|
|---------14---------------------------14-------------------|
|--12--12----12-12-10-10-12-10--12--12----12-12-10-10-12-10-|
|-----------------------------------------------------------|

then the bass is tabbed for guitar , just use distortion with this.
|-----------------------------------------------------------|
|-----------------------------------------------------------|
|-----------------------------------------------------------|
|-----------------------------------------------------------|
|-----3--------3----------3---------------------------------|
|/5-5--5-/5-5----5-4-/5-5---5-4-3-0-------------------------|

thats about the lot , it's not great but I think its not to bad for a first attempt
Tap to rate this tab
 
# A B C D E F G H I J K L M N O P Q R S T U V W X Y Z