Kasabian - Underdog Live tab

Song: Underdog (Kelly Rowland Live Lounge Cover)
Artist: Kasabian/Kelly Rowland
Tuning: Standard EADGBe
Capo 5th Fret

Bm7/E
e|2|
B|3|
G|2|
D|4|
A|2|
E|2|

I think this is a great cover version of the song. Again it's a cover, great for singing 
along to, and will not sound like the original Kasabian version.
Here's a Link to the live lounge song so you can see how the song fits together; 
http://www.youtube.com/watch?v=KmrfrZnn3Jc

Enjoy

Intro Rif x2
e|------------------------|-----------------------|
B|------------------------|-----------------------|
G|----5---5---5---5---5---|-----------------------|
D|------------------------|---5---5---5---5---5---|
A|--3---3---3---3---3-----|-3---3---3---3---3-----|
E|------------------------|-----------------------|

e|------------------------|-----------------------|
B|------------------------|-----------------------|
G|------------------------|----5---5---5---5---5--|
D|------3---3-------------|-----------------------|
A|----1---1-----3---3-----|--3---3---3---3---3----|
E|------------1---1-------|-----------------------|

Verse 1
e|------------------------|-----------------------|
B|------------------------|-----------------------|
G|----5---5---5---5---5---|-----------------------|
D|------------------------|---5---5---5---5---5---|
A|--3---3---3---3---3-----|-3---3---3---3---3-----|
E|------------------------|-----------------------|
    Kill me if you dare,   Hold my head up everywhere
e|------------------------|-----------------------|
B|------------------------|-----------------------|
G|------------------------|----5---5---5---5---5--|
D|------3---3-------------|-----------------------|
A|----1---1-----3---3-----|--3---3---3---3---3----|
E|------------1---1-------|-----------------------|
      Keep myself right on this     train

Verse 2 Rif
e|------------------------|-----------------------|
B|------------------------|-----------------------|
G|----5---5---5---5---5---|-----------------------|
D|------------------------|---5---5---5---5---5---|
A|--3---3---3---3---3-----|-3---3---3---3---3-----|
E|------------------------|-----------------------|
    Iím the Underdog,     Live my life on a lullaby
e|------------------------|-----------------------|
B|------------------------|-----------------------|
G|------------------------|----5---5---5---5---5--|
D|------3---3-------------|-----------------------|
A|----1---1-----3---3-----|--3---3---3---3---3----|
E|------------1---1-------|-----------------------|
      Keep myself right on this     train
e|----------------------|-------------------------|
B|----------------------|-------------------------|
G|----------------------|-------------------------|
D|------5---5---3---3---|-------------------------|
A|----3---3---1---1-----|----3---3---3---3---3----|
E|----------------------|--1---1---1---1---1------|
      Keep myself right on this     train

Interlude: Bm7/E, Aadd11, Em††

Verse 2
Aadd11                Bm7/E
Love in technicolour, sprayed out on walls
      Em
Well Iíve been pounding at the pavement
Em
ĎTil thereís nothing at all
Em
I got my cloak and dagger
Bm7/E
In a bar room brawl
Aadd11
See the local loves a fighter
Em
Loves a winner to fall

Aadd11                    G6
Feels like Iím lost in a moment
Aadd11               Em
Iím always losing to win
Bm7/E
Canít get away from the moment
Aadd11               Em
Seems like itís time to begin

Chorus; Repeat Verse 1 Rif *

Rest of song it just a repeat of Verse 2 and the Rifs

Good Luck! And Thanks!
Tap to rate this tab
 
# A B C D E F G H I J K L M N O P Q R S T U V W X Y Z