Song name
# A B C D E F G H I J K L M N O P Q R S T U V W X Y Z

Kasabian - Days Are Forgotten tab

|--------------------------|
|----DAYS-ARE-FORGOTTEN----|
|--------------------------|
|--------------------------|

This is the second song and new single from Kasabian's fourth and new album 
"Velociraptor!".  It's quite easy, with the riff repeating throughout and three chords during the 
chorus.  I recommend using slight distortion when playing this song.

Riff / Intro / Verse:
|-----------------------|
|-----------------------|
|-----------------------|
|------------0-0-5-5-5--|
|--0-0-3-0--------------|
|-----------------------|

Chorus:
  Am     F     G
|--------1~----3~--|
|--1~----1~----3~--|
|--2~----2~----4~--|
|--2~----3~----5~--|
|--------3~----5~--|
|--------1~----3~--|
A second guitar plays the riff underneath the chords.

NOTE:
During the second verse, you just play the A string until you hear the riff kick back in.

And that's about it.  Told you it was simple.  Any questions, criticisms or comments are 
welcome.  Cheers.
Tap to rate this tab
# A B C D E F G H I J K L M N O P Q R S T U V W X Y Z