Song name
# A B C D E F G H I J K L M N O P Q R S T U V W X Y Z

Kasabian - Running Battle tab

Song: Running Battle
Band: Kasabian 
Album: Kasabian

Intro:
(pedal EH Micro Synthesizer)
  A                           F
|----------------------------------------------|
|----------------------------------------------|
|----------------------------------------------|
|----------------------------------------------|
|----------------------------------------------|
|--5~~~~~~~~~~~---------------1~~~~~~~~~~~~~~--|


In this part Pizzorno and Karloff not touch, I think it's a guitar pre recorded:
|------------------------|-------------------------|
|------------------------|-------------------------|
|------------------------|-------------------------|[repeated many times]
|------------------------|-------------------------|
|--0---0--000--0--0--000-|--0---0--000--0--0--000--|
|------------------------|-------------------------|


Chords used in the song:
 A        F
|---------1---|
|---------1---|
|-2-------2---|
|-2-------3---|
|-0-------3---|
|---------1---|


0:55
|-----------------------|
|-----------------------|
|-----------------------|[x4]
|---5-7----5-7-7h8-7-5--|
|--0-----0--------------|
|-----------------------|


Solo:
(pedal EH Micro Synthesizer)
|-----------------10-10-13-13----10-10--10-10--10-10-----10-10--|
|------10-10-13-13----------------------------------12-12-------|
|-12-12---------------------------------------------------------|
|---------------------------------------------------------------|
|---------------------------------------------------------------|
|---------------------------------------------------------------|


|--20-20-17-17------17----17------17x17--|-------17------17--17----17x17-|
|----------------20----20----20----------|--20-20------20--20--20--------|
|----------------------------------------|-------------------------------|
|----------------------------------------|-------------------------------|
|----------------------------------------|-------------------------------|
|----------------------------------------|-------------------------------|


|--13-13-10-10----------------------------------------------|
|-------------13-13--1313-13---------10-10----10--10-10x10--|
|-------------------------------12-12-------12--12----------|
|-----------------------------------------------------------|
|-----------------------------------------------------------|
|-----------------------------------------------------------|


|--20-20-17-17------17-17---------------------------------------------|
|-------------20-20--------17-17-20-20---15-15-17-17---15-15----------|
|------------------------------------------------------------17-14~~--|
|---------------------------------------------------------------------|
|---------------------------------------------------------------------|
|---------------------------------------------------------------------|


   A            F              G  G#
|-------------------------------------|
|-------------------------------------|
|-------------------------------------|
|--77-77777777---3-3-3-333333--55-66--|
|--77-77777777---3-3-3-333333--55-66--|
|--55-55555555---1-1-1-111111--33-44--|


David-Argentina
Tap to rate this tab
# A B C D E F G H I J K L M N O P Q R S T U V W X Y Z