Song name
# A B C D E F G H I J K L M N O P Q R S T U V W X Y Z

Kasabian - La Fee Verte tab

Song: La Fťe Verte
Band: Kasabian
Album: Velocirptor!

Tuning:
First string:  D
Second string: A
Third string:  F
Fourth string: C
Fifth string:  G
Sixth string:  D


F (133211)
Cm (x35543)
A7 (x02020)
F#m (244222)
A (x02220)
Am (x02210)
D (xx0232)
Dm (xx0231)
G (320033)
C (x32010)


Intro:
F     Cm     A7


F
Old green fairy, 
                   Cm
what youīve done to me
          A7
I see Lucy in the sky 
telling me iīm high

F
I went out for some 
                Cm
milk three days ago
          A7
I met DalŪ in the street,
he knocked me off my feet


F#m    F
Ah ah ah
      Cm    A
Ah ah ah ah ah ah ha
D
  Ah ah ah ha ah


F
Now I start to see
               Cm
that allís not well
        A7
Thereís policemen in my bed 
telling me Iím dead

F
If only I could 
                 Cm
show them what iíve seen
          A7
Iíll have to take you down below
where insects run the show.



Dm        A
Sound and vision
Dm              A
turning inside out
      C
The lines 
            G
make you look older
           A
then youíre gone


Chorus:
Dm                  Am
And everyday I got someone bringing me down
                 G    
I got the eyes of a madman, 
G*
Iím chasing round


Dm
How does it feel to live your life
    Am
where nothing is real?
       G 
So just send me 
        Am   
down the river



F
The neighbours say that
            Cm
I need locking up
            A7
Well it wouldnít be a first
to want me in a hurse

F
No one sleeps for
              Cm
i am still awake
          A7
Pass me over la fťe verte,
Iíll give you all a scare



Dm            A
Dogs in handbags,
Dm            A
everyoneís a star
      C
You look 
          G 
behind your eyelids 
            A  
then youíre gone



Dm                  Am
And everyday I got someone bringing me down
                 G    
I got the eyes of a madman, 
G*
Iím chasing round


Dm
How does it feel to live your life
    Am
where nothing is real?
       G 
So just send me 
        Am   
down the river



Dm
Iím not gonna 
           Am
wait for tomorrow
       G
I just look back 
        Am
and wait for a sign

Dm
And Iím not gonna 
            Am
celebrate my freedom
        G
So just send me 
         Am
down the river



Dm
Na na na na
         Am
Na na na na na na na
         G
Na na na na na
G*
Na na na na



Dm                  Am
And everyday I got someone bringing me down
                 G    
I got the eyes of a madman, 
G*
Iím chasing round


Dm
How does it feel to live your life
    Am
where nothing is real?
       G 
So just send me 
        Am   
down the river 



End:
F     Cm     A7




Detail in G*:(Hear the song with attention)
 Dm              Am             G
|-1-1-11-11-11-1-----------------3-33-33-33-3---3--3-3-----|
|-3-3-33-33-33-3--1-1-11-11-11---3-33-33-33-3---3--3-3--3--|
|-2-2-22-22-22-2--2-2-22-22-22---0-00-00-00-0---0--0-0--0--|
|-0-0-00-00-00-0--2-2-22-22-22---0-00-00-00-0---0--0-0--0--|
|-----------------0-0-00-00-00---2-22-22-22-2---2--2-3--x--|
|--------------------------------3-33-33-33-3---3--x-x--x--|


Second guitar in the chorus:

|--13-12--13---13-12--13-15-|--12-----12---12-----12-13---------|----------------------------|
|-------15----------15------|----15-13-------15-13-------15-12~-|-12--12--13--13--15--15-----|
|---------------------------|-----------------------------------|---12--12--12--12--12--12---|
|---------------------------|-----------------------------------|----------------------------|
|---------------------------|-----------------------------------|----------------------------|
|---------------------------|-----------------------------------|----------------------------|


|--13-12--13---13-12--13-15-|--12-----12---12-----12-13---------|----------------------------|
|-------15----------15------|----15-13-------15-13-------15-12~-|-12--12--13--13---12-13-10~-|
|---------------------------|-----------------------------------|---12--12--12--12-----------|
|---------------------------|-----------------------------------|----------------------------|
|---------------------------|-----------------------------------|----------------------------|
|---------------------------|-----------------------------------|----------------------------|




David-Argentina
Tap to rate this tab
 
# A B C D E F G H I J K L M N O P Q R S T U V W X Y Z